  0
SECTION
  2
HEADER
  9
$ACADVER
  1
AC1015
  9
$ACADMAINTVER
 70
     6
  9
$DWGCODEPAGE
  3
ANSI_1254
  9
$INSBASE
 10
0.0
 20
0.0
 30
0.0
  9
$EXTMIN
 10
0.0
 20
0.0
 30
0.0
  9
$EXTMAX
 10
279.4
 20
215.9
 30
0.0
  9
$LIMMIN
 10
0.0
 20
0.0
  9
$LIMMAX
 10
279.4
 20
215.9
  9
$ORTHOMODE
 70
     0
  9
$REGENMODE
 70
     1
  9
$FILLMODE
 70
     1
  9
$QTEXTMODE
 70
     0
  9
$MIRRTEXT
 70
     1
  9
$LTSCALE
 40
1.0
  9
$ATTMODE
 70
     1
  9
$TEXTSIZE
 40
3.5
  9
$TRACEWID
 40
1.0
  9
$TEXTSTYLE
  7
Standard
  9
$CLAYER
  8
0
  9
$CELTYPE
  6
ByLayer
  9
$CECOLOR
 62
   256
  9
$CELTSCALE
 40
1.0
  9
$DISPSILH
 70
     0
  9
$DIMSCALE
 40
1.0
  9
$DIMASZ
 40
3.5
  9
$DIMEXO
 40
1.0
  9
$DIMDLI
 40
3.75
  9
$DIMRND
 40
0.0
  9
$DIMDLE
 40
0.0
  9
$DIMEXE
 40
1.0
  9
$DIMTP
 40
0.0
  9
$DIMTM
 40
0.0
  9
$DIMTXT
 40
3.5
  9
$DIMCEN
 40
2.5
  9
$DIMTSZ
 40
0.0
  9
$DIMTOL
 70
     0
  9
$DIMLIM
 70
     0
  9
$DIMTIH
 70
     1
  9
$DIMTOH
 70
     1
  9
$DIMSE1
 70
     0
  9
$DIMSE2
 70
     0
  9
$DIMTAD
 70
     1
  9
$DIMZIN
 70
     0
  9
$DIMBLK
  1

  9
$DIMASO
 70
     1
  9
$DIMSHO
 70
     1
  9
$DIMPOST
  1

  9
$DIMAPOST
  1

  9
$DIMALT
 70
     0
  9
$DIMALTD
 70
     3
  9
$DIMALTF
 40
0.0393700787
  9
$DIMLFAC
 40
1.0
  9
$DIMTOFL
 70
     1
  9
$DIMTVP
 40
0.0
  9
$DIMTIX
 70
     0
  9
$DIMSOXD
 70
     0
  9
$DIMSAH
 70
     0
  9
$DIMBLK1
  1

  9
$DIMBLK2
  1

  9
$DIMSTYLE
  2
ISO-25
  9
$DIMCLRD
 70
     0
  9
$DIMCLRE
 70
     0
  9
$DIMCLRT
 70
     0
  9
$DIMTFAC
 40
1.0
  9
$DIMGAP
 40
1.524
  9
$DIMJUST
 70
     0
  9
$DIMSD1
 70
     0
  9
$DIMSD2
 70
     0
  9
$DIMTOLJ
 70
     0
  9
$DIMTZIN
 70
     0
  9
$DIMALTZ
 70
     0
  9
$DIMALTTZ
 70
     0
  9
$DIMUPT
 70
     0
  9
$DIMDEC
 70
     2
  9
$DIMTDEC
 70
     2
  9
$DIMALTU
 70
     2
  9
$DIMALTTD
 70
     3
  9
$DIMTXSTY
  7
Standard
  9
$DIMAUNIT
 70
     0
  9
$DIMADEC
 70
     2
  9
$DIMALTRND
 40
0.0
  9
$DIMAZIN
 70
     0
  9
$DIMDSEP
 70
    44
  9
$DIMATFIT
 70
     3
  9
$DIMFRAC
 70
     0
  9
$DIMLDRBLK
  1

  9
$DIMLUNIT
 70
     2
  9
$DIMLWD
 70
    -2
  9
$DIMLWE
 70
    -2
  9
$DIMTMOVE
 70
     0
  9
$LUNITS
 70
     2
  9
$LUPREC
 70
     2
  9
$SKETCHINC
 40
1.0
  9
$FILLETRAD
 40
10.0
  9
$AUNITS
 70
     0
  9
$AUPREC
 70
     2
  9
$MENU
  1
.
  9
$ELEVATION
 40
0.0
  9
$PELEVATION
 40
0.0
  9
$THICKNESS
 40
0.0
  9
$LIMCHECK
 70
     0
  9
$CHAMFERA
 40
0.0
  9
$CHAMFERB
 40
0.0
  9
$CHAMFERC
 40
0.0
  9
$CHAMFERD
 40
0.0
  9
$SKPOLY
 70
     0
  9
$TDCREATE
 40
2458985.708799514
  9
$TDUCREATE
 40
2458985.583799514
  9
$TDUPDATE
 40
2458985.708799803
  9
$TDUUPDATE
 40
2458985.583799803
  9
$TDINDWG
 40
0.0000000116
  9
$TDUSRTIMER
 40
0.0000000116
  9
$USRTIMER
 70
     1
  9
$ANGBASE
 50
0.0
  9
$ANGDIR
 70
     0
  9
$PDMODE
 70
     0
  9
$PDSIZE
 40
-1.0
  9
$PLINEWID
 40
0.0
  9
$SPLFRAME
 70
     0
  9
$SPLINETYPE
 70
     6
  9
$SPLINESEGS
 70
     8
  9
$HANDSEED
  5
10A
  9
$SURFTAB1
 70
     6
  9
$SURFTAB2
 70
     6
  9
$SURFTYPE
 70
     6
  9
$SURFU
 70
     6
  9
$SURFV
 70
     6
  9
$UCSBASE
  2

  9
$UCSNAME
  2

  9
$UCSORG
 10
0.0
 20
0.0
 30
0.0
  9
$UCSXDIR
 10
1.0
 20
0.0
 30
0.0
  9
$UCSYDIR
 10
0.0
 20
1.0
 30
0.0
  9
$UCSORTHOREF
  2

  9
$UCSORTHOVIEW
 70
     0
  9
$UCSORGTOP
 10
0.0
 20
0.0
 30
0.0
  9
$UCSORGBOTTOM
 10
0.0
 20
0.0
 30
0.0
  9
$UCSORGLEFT
 10
0.0
 20
0.0
 30
0.0
  9
$UCSORGRIGHT
 10
0.0
 20
0.0
 30
0.0
  9
$UCSORGFRONT
 10
0.0
 20
0.0
 30
0.0
  9
$UCSORGBACK
 10
0.0
 20
0.0
 30
0.0
  9
$PUCSBASE
  2

  9
$PUCSNAME
  2

  9
$PUCSORG
 10
0.0
 20
0.0
 30
0.0
  9
$PUCSXDIR
 10
1.0
 20
0.0
 30
0.0
  9
$PUCSYDIR
 10
0.0
 20
1.0
 30
0.0
  9
$PUCSORTHOREF
  2

  9
$PUCSORTHOVIEW
 70
     0
  9
$PUCSORGTOP
 10
0.0
 20
0.0
 30
0.0
  9
$PUCSORGBOTTOM
 10
0.0
 20
0.0
 30
0.0
  9
$PUCSORGLEFT
 10
0.0
 20
0.0
 30
0.0
  9
$PUCSORGRIGHT
 10
0.0
 20
0.0
 30
0.0
  9
$PUCSORGFRONT
 10
0.0
 20
0.0
 30
0.0
  9
$PUCSORGBACK
 10
0.0
 20
0.0
 30
0.0
  9
$USERI1
 70
     0
  9
$USERI2
 70
     0
  9
$USERI3
 70
     0
  9
$USERI4
 70
     0
  9
$USERI5
 70
     0
  9
$USERR1
 40
0.0
  9
$USERR2
 40
0.0
  9
$USERR3
 40
0.0
  9
$USERR4
 40
0.0
  9
$USERR5
 40
0.0
  9
$WORLDVIEW
 70
     1
  9
$SHADEDGE
 70
     3
  9
$SHADEDIF
 70
    70
  9
$TILEMODE
 70
     1
  9
$MAXACTVP
 70
    64
  9
$PINSBASE
 10
0.0
 20
0.0
 30
0.0
  9
$PLIMCHECK
 70
     0
  9
$PEXTMIN
 10
1.0000000000E+20
 20
1.0000000000E+20
 30
1.0000000000E+20
  9
$PEXTMAX
 10
-1.0000000000E+20
 20
-1.0000000000E+20
 30
-1.0000000000E+20
  9
$PLIMMIN
 10
0.0
 20
0.0
  9
$PLIMMAX
 10
420.0
 20
297.0
  9
$UNITMODE
 70
     0
  9
$VISRETAIN
 70
     1
  9
$PLINEGEN
 70
     0
  9
$PSLTSCALE
 70
     1
  9
$TREEDEPTH
 70
  3020
  9
$CMLSTYLE
  2
Standard
  9
$CMLJUST
 70
     0
  9
$CMLSCALE
 40
20.0
  9
$PROXYGRAPHICS
 70
     1
  9
$MEASUREMENT
 70
     1
  9
$CELWEIGHT
370
    -1
  9
$ENDCAPS
280
     0
  9
$JOINSTYLE
280
     0
  9
$LWDISPLAY
290
     1
  9
$INSUNITS
 70
     4
  9
$HYPERLINKBASE
  1

  9
$STYLESHEET
  1

  9
$XEDIT
290
     1
  9
$CEPSNTYPE
380
     0
  9
$PSTYLEMODE
290
     1
  9
$FINGERPRINTGUID
  2
{e8292ce4-3dcb-44eb-be3f-9fd12da7d330}
  9
$VERSIONGUID
  2
{FAEB1C32-E019-11D5-929B-00C0DF256EC4}
  9
$EXTNAMES
290
     1
  9
$PSVPSCALE
 40
0.0
  9
$OLESTARTUP
290
     0
  0
ENDSEC
  0
SECTION
  2
CLASSES
  0
CLASS
  1
ACDBDICTIONARYWDFLT
  2
AcDbDictionaryWithDefault
  3
ObjectDBX Classes
 90
        0
280
     0
281
     0
  0
CLASS
  1
VISUALSTYLE
  2
AcDbVisualStyle
  3
ObjectDBX Classes
 90
     4095
280
     0
281
     0
  0
CLASS
  1
MATERIAL
  2
AcDbMaterial
  3
ObjectDBX Classes
 90
     1153
280
     0
281
     0
  0
CLASS
  1
SCALE
  2
AcDbScale
  3
ObjectDBX Classes
 90
     1153
280
     0
281
     0
  0
CLASS
  1
TABLESTYLE
  2
AcDbTableStyle
  3
ObjectDBX Classes
 90
     4095
280
     0
281
     0
  0
CLASS
  1
MLEADERSTYLE
  2
AcDbMLeaderStyle
  3
ACDB_MLEADERSTYLE_CLASS
 90
     4095
280
     0
281
     0
  0
CLASS
  1
SUN
  2
AcDbSun
  3
SCENEOE
 90
     1153
280
     0
281
     0
  0
CLASS
  1
ACDBPLACEHOLDER
  2
AcDbPlaceHolder
  3
ObjectDBX Classes
 90
        0
280
     0
281
     0
  0
CLASS
  1
LAYOUT
  2
AcDbLayout
  3
ObjectDBX Classes
 90
        0
280
     0
281
     0
  0
ENDSEC
  0
SECTION
  2
TABLES
  0
TABLE
  2
VPORT
  5
8
330
0
100
AcDbSymbolTable
 70
     1
  0
VPORT
  5
29
330
8
100
AcDbSymbolTableRecord
100
AcDbViewportTableRecord
  2
*Active
 70
     0
 10
0.0
 20
0.0
 11
1.0
 21
1.0
 12
139.7
 22
107.95
 13
0.0
 23
0.0
 14
10.0
 24
10.0
 15
10.0
 25
10.0
 16
0.0
 26
0.0
 36
1.0
 17
0.0
 27
0.0
 37
0.0
 40
215.9
 41
1.2941176471
 42
50.0
 43
0.0
 44
0.0
 50
0.0
 51
0.0
 71
     0
 72
  2000
 73
     1
 74
     3
 75
     0
 76
     0
 77
     0
 78
     0
281
     0
 65
     1
110
0.0
120
0.0
130
0.0
111
1.0
121
0.0
131
0.0
112
0.0
122
1.0
132
0.0
 79
     0
146
0.0
  0
ENDTAB
  0
TABLE
  2
LTYPE
  5
5
330
0
100
AcDbSymbolTable
 70
     6
  0
LTYPE
  5
14
330
5
100
AcDbSymbolTableRecord
100
AcDbLinetypeTableRecord
  2
ByBlock
 70
     0
  3

 72
    65
 73
     0
 40
0.0
  0
LTYPE
  5
15
330
5
100
AcDbSymbolTableRecord
100
AcDbLinetypeTableRecord
  2
ByLayer
 70
     0
  3

 72
    65
 73
     0
 40
0.0
  0
LTYPE
  5
16
330
5
100
AcDbSymbolTableRecord
100
AcDbLinetypeTableRecord
  2
Continuous
 70
     0
  3
Solid line
 72
    65
 73
     0
 40
0.0
  0
LTYPE
  5
6E
330
5
100
AcDbSymbolTableRecord
100
AcDbLinetypeTableRecord
  2
HIDDEN
 70
     0
  3
Hidden __ __ __ __ __ __ __ __ __ __ __ __ __ __
 72
    65
 73
     2
 40
1.905
 49
1.27
 74
     0
 49
-0.635
 74
     0
  0
LTYPE
  5
6F
330
5
100
AcDbSymbolTableRecord
100
AcDbLinetypeTableRecord
  2
PHANTOM
 70
     0
  3
Phantom ______  __  __  ______  __  __  ______
 72
    65
 73
     6
 40
12.7
 49
6.35
 74
     0
 49
-1.27
 74
     0
 49
1.27
 74
     0
 49
-1.27
 74
     0
 49
1.27
 74
     0
 49
-1.27
 74
     0
  0
LTYPE
  5
70
330
5
100
AcDbSymbolTableRecord
100
AcDbLinetypeTableRecord
  2
CENTER
 70
     0
  3
Center ____ _ ____ _ ____ _ ____ _ ____ _ ____
 72
    65
 73
     4
 40
10.16
 49
6.35
 74
     0
 49
-1.27
 74
     0
 49
1.27
 74
     0
 49
-1.27
 74
     0
  0
LTYPE
  5
71
330
5
100
AcDbSymbolTableRecord
100
AcDbLinetypeTableRecord
  2
CENTERX2
 70
     0
  3
Center (2x) ________  __  ________  __  _____
 72
    65
 73
     4
 40
20.32
 49
12.7
 74
     0
 49
-2.54
 74
     0
 49
2.54
 74
     0
 49
-2.54
 74
     0
  0
LTYPE
  5
72
330
5
100
AcDbSymbolTableRecord
100
AcDbLinetypeTableRecord
  2
DOT2
 70
     0
  3
Dot (.5x) ........................................
 72
    65
 73
     2
 40
0.635
 49
0.0
 74
     0
 49
-0.635
 74
     0
  0
ENDTAB
  0
TABLE
  2
LAYER
  5
2
330
0
100
AcDbSymbolTable
 70
    17
  0
LAYER
  5
10
330
2
100
AcDbSymbolTableRecord
100
AcDbLayerTableRecord
  2
0
 70
     0
 62
     7
  6
Continuous
370
    -3
390
F
  0
LAYER
  5
73
330
2
100
AcDbSymbolTableRecord
100
AcDbLayerTableRecord
  2
FORMAT
 70
     0
 62
     7
  6
Continuous
370
    -3
390
F
  0
LAYER
  5
74
330
2
100
AcDbSymbolTableRecord
100
AcDbLayerTableRecord
  2
YARDIMCI_GEOMETRI
 70
     0
 62
    -6
  6
Continuous
290
     0
370
    -3
390
F
  0
LAYER
  5
75
330
2
100
AcDbSymbolTableRecord
100
AcDbLayerTableRecord
  2
SAYFA_CERCEVESI
 70
     0
 62
     7
  6
Continuous
370
    25
390
F
  0
LAYER
  5
76
330
2
100
AcDbSymbolTableRecord
100
AcDbLayerTableRecord
  2
ANTET
 70
     0
 62
     7
  6
Continuous
370
    -3
390
F
  0
LAYER
  5
77
330
2
100
AcDbSymbolTableRecord
100
AcDbLayerTableRecord
  2
OLCU
 70
     0
 62
   150
  6
Continuous
370
    -3
390
F
  0
LAYER
  5
78
330
2
100
AcDbSymbolTableRecord
100
AcDbLayerTableRecord
  2
METIN
 70
     0
 62
    96
  6
Continuous
370
    -3
390
F
  0
LAYER
  5
79
330
2
100
AcDbSymbolTableRecord
100
AcDbLayerTableRecord
  2
BALON
 70
     0
 62
     5
  6
Continuous
370
    -3
390
F
  0
LAYER
  5
7A
330
2
100
AcDbSymbolTableRecord
100
AcDbLayerTableRecord
  2
VURGU
 70
     0
 62
     7
  6
Continuous
370
    -3
390
F
  0
LAYER
  5
7B
330
2
100
AcDbSymbolTableRecord
100
AcDbLayerTableRecord
  2
SILIK
 70
     0
 62
     7
  6
Continuous
370
    -3
390
F
  0
LAYER
  5
7C
330
2
100
AcDbSymbolTableRecord
100
AcDbLayerTableRecord
  2
MODEL
 70
     0
 62
     7
  6
Continuous
370
    -3
390
F
  0
LAYER
  5
7D
330
2
100
AcDbSymbolTableRecord
100
AcDbLayerTableRecord
  2
DETAYLANDıRMA
 70
     0
 62
   190
  6
Continuous
370
    -3
390
F
  0
LAYER
  5
7E
330
2
100
AcDbSymbolTableRecord
100
AcDbLayerTableRecord
  2
TOLERANS
 70
     0
 62
   230
  6
Continuous
370
    -3
390
F
  0
LAYER
  5
7F
330
2
100
AcDbSymbolTableRecord
100
AcDbLayerTableRecord
  2
MERKEZ_CIZGILERI
 70
     0
 62
    30
  6
Continuous
370
    -3
390
F
  0
LAYER
  5
80
330
2
100
AcDbSymbolTableRecord
100
AcDbLayerTableRecord
  2
KESIT-DETAY_CIZGILERI
 70
     0
 62
     7
  6
Continuous
370
    -3
390
F
  0
LAYER
  5
81
330
2
100
AcDbSymbolTableRecord
100
AcDbLayerTableRecord
  2
\U+041E\U+0421\U+0415\U+0412\U+042B\U+0415
 70
     0
 62
     7
  6
Continuous
370
    -3
390
F
  0
LAYER
  5
82
330
2
100
AcDbSymbolTableRecord
100
AcDbLayerTableRecord
  2
\U+0412\U+041E\U+0414\U+042F\U+041D\U+042B\U+0415_\U+0417\U+041D\U+0410\U+041A\U+0418
 70
     0
 62
    11
  6
Continuous
370
    -3
390
F
  0
ENDTAB
  0
TABLE
  2
STYLE
  5
3
330
0
100
AcDbSymbolTable
 70
     1
  0
STYLE
  5
11
330
3
100
AcDbSymbolTableRecord
100
AcDbTextStyleTableRecord
  2
Standard
 70
     0
 40
0.0
 41
1.0
 50
0.0
 71
     0
 42
3.5
  3
txt
  4

  0
ENDTAB
  0
TABLE
  2
VIEW
  5
6
330
0
100
AcDbSymbolTable
 70
     0
  0
ENDTAB
  0
TABLE
  2
UCS
  5
7
330
0
100
AcDbSymbolTable
 70
     0
  0
ENDTAB
  0
TABLE
  2
APPID
  5
9
330
0
100
AcDbSymbolTable
 70
     1
  0
APPID
  5
12
330
9
100
AcDbSymbolTableRecord
100
AcDbRegAppTableRecord
  2
ACAD
 70
     0
  0
ENDTAB
  0
TABLE
  2
DIMSTYLE
  5
A
330
0
100
AcDbSymbolTable
 70
     1
100
AcDbDimStyleTable
  0
DIMSTYLE
105
27
330
A
100
AcDbSymbolTableRecord
100
AcDbDimStyleTableRecord
  2
ISO-25
 70
     0
 41
2.5
 42
0.625
 43
3.75
 44
1.25
 73
     0
 74
     0
 77
     1
 78
     8
140
2.5
141
2.5
143
0.0393700787
147
0.625
171
     3
172
     1
178
     0
271
     2
272
     2
274
     3
278
    44
283
     0
284
     8
340
11
  0
ENDTAB
  0
TABLE
  2
BLOCK_RECORD
  5
1
330
0
100
AcDbSymbolTable
 70
     2
  0
BLOCK_RECORD
  5
1F
330
1
100
AcDbSymbolTableRecord
100
AcDbBlockTableRecord
  2
*Model_Space
340
22
  0
BLOCK_RECORD
  5
1B
330
1
100
AcDbSymbolTableRecord
100
AcDbBlockTableRecord
  2
*Paper_Space
340
1E
  0
BLOCK_RECORD
  5
23
330
1
100
AcDbSymbolTableRecord
100
AcDbBlockTableRecord
  2
*Paper_Space0
340
26
  0
BLOCK_RECORD
  5
88
330
1
100
AcDbSymbolTableRecord
100
AcDbBlockTableRecord
  2
SW_CENTERMARKSYMBOL_0
340
0
102
{BLKREFS
331
93
102
}
  0
ENDTAB
  0
ENDSEC
  0
SECTION
  2
BLOCKS
  0
BLOCK
  5
20
330
1F
100
AcDbEntity
  8
0
100
AcDbBlockBegin
  2
*Model_Space
 70
     0
 10
0.0
 20
0.0
 30
0.0
  3
*Model_Space
  1

  0
ENDBLK
  5
21
330
1F
100
AcDbEntity
  8
0
100
AcDbBlockEnd
  0
BLOCK
  5
1C
330
1B
100
AcDbEntity
 67
     1
  8
0
100
AcDbBlockBegin
  2
*Paper_Space
 70
     0
 10
0.0
 20
0.0
 30
0.0
  3
*Paper_Space
  1

  0
ENDBLK
  5
1D
330
1B
100
AcDbEntity
 67
     1
  8
0
100
AcDbBlockEnd
  0
BLOCK
  5
24
330
23
100
AcDbEntity
  8
0
100
AcDbBlockBegin
  2
*Paper_Space0
 70
     0
 10
0.0
 20
0.0
 30
0.0
  3
*Paper_Space0
  1

  0
ENDBLK
  5
25
330
23
100
AcDbEntity
  8
0
100
AcDbBlockEnd
  0
BLOCK
  5
89
330
88
100
AcDbEntity
  8
0
100
AcDbBlockBegin
  2
SW_CENTERMARKSYMBOL_0
 70
     0
 10
0.0
 20
0.0
 30
0.0
  3
SW_CENTERMARKSYMBOL_0
  1

  0
LINE
  5
8B
330
88
100
AcDbEntity
  8
FORMAT
 62
     0
100
AcDbLine
 10
0.0
 20
0.0
 30
0.0
 11
0.0
 21
2.5
 31
0.0
  0
LINE
  5
8C
330
88
100
AcDbEntity
  8
FORMAT
 62
     0
100
AcDbLine
 10
0.0
 20
0.0
 30
0.0
 11
-2.5
 21
0.0
 31
0.0
  0
LINE
  5
8D
330
88
100
AcDbEntity
  8
FORMAT
 62
     0
100
AcDbLine
 10
0.0
 20
0.0
 30
0.0
 11
0.0
 21
-2.5
 31
0.0
  0
LINE
  5
8E
330
88
100
AcDbEntity
  8
FORMAT
 62
     0
100
AcDbLine
 10
0.0
 20
0.0
 30
0.0
 11
2.5
 21
0.0
 31
0.0
  0
LINE
  5
8F
330
88
100
AcDbEntity
  8
FORMAT
 62
     0
100
AcDbLine
 10
0.0
 20
5.0
 30
0.0
 11
0.0
 21
115.0
 31
0.0
  0
LINE
  5
90
330
88
100
AcDbEntity
  8
FORMAT
 62
     0
100
AcDbLine
 10
-5.0
 20
0.0
 30
0.0
 11
-115.0
 21
0.0
 31
0.0
  0
LINE
  5
91
330
88
100
AcDbEntity
  8
FORMAT
 62
     0
100
AcDbLine
 10
0.0
 20
-5.0
 30
0.0
 11
0.0
 21
-115.0
 31
0.0
  0
LINE
  5
92
330
88
100
AcDbEntity
  8
FORMAT
 62
     0
100
AcDbLine
 10
5.0
 20
0.0
 30
0.0
 11
115.0
 21
0.0
 31
0.0
  0
ENDBLK
  5
8A
330
88
100
AcDbEntity
  8
0
100
AcDbBlockEnd
  0
ENDSEC
  0
SECTION
  2
ENTITIES
  0
CIRCLE
  5
83
330
1F
100
AcDbEntity
  8
0
  6
Continuous
 62
     7
370
    25
100
AcDbCircle
 10
136.3914362981
 20
115.8905528846
 30
0.0
 40
65.4
  0
CIRCLE
  5
84
330
1F
100
AcDbEntity
  8
0
  6
Continuous
 62
     7
370
    25
100
AcDbCircle
 10
136.3914362981
 20
115.8905528846
 30
0.0
 40
80.00000000000001
  0
CIRCLE
  5
85
330
1F
100
AcDbEntity
  8
0
  6
Continuous
 62
     7
370
    25
100
AcDbCircle
 10
136.3914362981
 20
115.8905528846
 30
0.0
 40
90.0
  0
CIRCLE
  5
86
330
1F
100
AcDbEntity
  8
0
  6
Continuous
 62
     7
370
    25
100
AcDbCircle
 10
136.3914362981
 20
115.8905528846
 30
0.0
 40
100.0
  0
CIRCLE
  5
87
330
1F
100
AcDbEntity
  8
0
  6
Continuous
 62
     7
370
    25
100
AcDbCircle
 10
136.3914362981
 20
115.8905528846
 30
0.0
 40
112.5
  0
INSERT
  5
93
330
1F
100
AcDbEntity
  8
FORMAT
 62
     7
100
AcDbBlockReference
  2
SW_CENTERMARKSYMBOL_0
 10
136.3914362981
 20
115.8905528846
 30
0.0
  0
LINE
  5
94
330
1F
100
AcDbEntity
  8
0
  6
Continuous
 62
     7
370
    25
100
AcDbLine
 10
384.9411697751
 20
3.3905528846
 30
0.0
 11
420.9411697751
 21
3.3905528846
 31
0.0
  0
LINE
  5
95
330
1F
100
AcDbEntity
  8
0
  6
Continuous
 62
     7
370
    25
100
AcDbLine
 10
420.9411697751
 20
228.3905528846
 30
0.0
 11
384.9411697751
 21
228.3905528846
 31
0.0
  0
LINE
  5
96
330
1F
100
AcDbEntity
  8
0
  6
Continuous
 62
     7
370
    25
100
AcDbLine
 10
420.9411697751
 20
3.3905528846
 30
0.0
 11
431.3257851597
 21
15.8905528846
 31
0.0
  0
LINE
  5
97
330
1F
100
AcDbEntity
  8
0
  6
Continuous
 62
     7
370
    25
100
AcDbLine
 10
431.3257851597
 20
215.8905528846
 30
0.0
 11
420.9411697751
 21
228.3905528846
 31
0.0
  0
LINE
  5
98
330
1F
100
AcDbEntity
  8
0
  6
Continuous
 62
     7
370
    25
100
AcDbLine
 10
431.3257851597
 20
15.8905528846
 30
0.0
 11
467.3257851597
 21
15.8905528846
 31
0.0
  0
LINE
  5
99
330
1F
100
AcDbEntity
  8
0
  6
Continuous
 62
     7
370
    25
100
AcDbLine
 10
467.3257851597
 20
215.8905528846
 30
0.0
 11
431.3257851597
 21
215.8905528846
 31
0.0
  0
LINE
  5
9A
330
1F
100
AcDbEntity
  8
0
  6
Continuous
 62
     7
370
    25
100
AcDbLine
 10
467.3257851597
 20
15.8905528846
 30
0.0
 11
475.6334774674
 21
25.8905528846
 31
0.0
  0
LINE
  5
9B
330
1F
100
AcDbEntity
  8
0
  6
Continuous
 62
     7
370
    25
100
AcDbLine
 10
475.6334774674
 20
205.8905528846
 30
0.0
 11
467.3257851597
 21
215.8905528846
 31
0.0
  0
LINE
  5
9C
330
1F
100
AcDbEntity
  8
0
  6
Continuous
 62
     7
370
    25
100
AcDbLine
 10
475.6334774674
 20
25.8905528846
 30
0.0
 11
511.6334774674
 21
25.8905528846
 31
0.0
  0
LINE
  5
9D
330
1F
100
AcDbEntity
  8
0
  6
Continuous
 62
     7
370
    25
100
AcDbLine
 10
511.6334774674
 20
205.8905528846
 30
0.0
 11
475.6334774674
 21
205.8905528846
 31
0.0
  0
LINE
  5
9E
330
1F
100
AcDbEntity
  8
0
  6
Continuous
 62
     7
370
    25
100
AcDbLine
 10
511.6334774674
 20
25.8905528846
 30
0.0
 11
519.9411697751
 21
35.8905528846
 31
0.0
  0
LINE
  5
9F
330
1F
100
AcDbEntity
  8
0
  6
Continuous
 62
     7
370
    25
100
AcDbLine
 10
519.9411697751
 20
195.8905528846
 30
0.0
 11
511.6334774674
 21
205.8905528846
 31
0.0
  0
LINE
  5
A0
330
1F
100
AcDbEntity
  8
0
  6
Continuous
 62
     7
370
    25
100
AcDbLine
 10
519.9411697751
 20
35.8905528846
 30
0.0
 11
555.9411697751
 21
35.8905528846
 31
0.0
  0
LINE
  5
A1
330
1F
100
AcDbEntity
  8
0
  6
Continuous
 62
     7
370
    25
100
AcDbLine
 10
555.9411697751
 20
195.8905528846
 30
0.0
 11
519.9411697751
 21
195.8905528846
 31
0.0
  0
LINE
  5
A2
330
1F
100
AcDbEntity
  8
0
  6
Continuous
 62
     7
370
    25
100
AcDbLine
 10
420.9411697751
 20
115.8905528846
 30
0.0
 11
420.9411697751
 21
228.3905528846
 31
0.0
  0
LINE
  5
A3
330
1F
100
AcDbEntity
  8
0
  6
Continuous
 62
     7
370
    25
100
AcDbLine
 10
420.9411697751
 20
3.3905528846
 30
0.0
 11
420.9411697751
 21
115.8905528846
 31
0.0
  0
LINE
  5
A4
330
1F
100
AcDbEntity
  8
0
  6
Continuous
 62
     7
370
    25
100
AcDbLine
 10
384.9411697751
 20
115.8905528846
 30
0.0
 11
384.9411697751
 21
228.3905528846
 31
0.0
  0
LINE
  5
A5
330
1F
100
AcDbEntity
  8
0
  6
Continuous
 62
     7
370
    25
100
AcDbLine
 10
384.9411697751
 20
3.3905528846
 30
0.0
 11
384.9411697751
 21
115.8905528846
 31
0.0
  0
LINE
  5
A6
330
1F
100
AcDbEntity
  8
0
  6
Continuous
 62
     7
370
    25
100
AcDbLine
 10
431.3257851597
 20
115.8905528846
 30
0.0
 11
431.3257851597
 21
215.8905528846
 31
0.0
  0
LINE
  5
A7
330
1F
100
AcDbEntity
  8
0
  6
Continuous
 62
     7
370
    25
100
AcDbLine
 10
431.3257851597
 20
15.8905528846
 30
0.0
 11
431.3257851597
 21
115.8905528846
 31
0.0
  0
LINE
  5
A8
330
1F
100
AcDbEntity
  8
0
  6
Continuous
 62
     7
370
    25
100
AcDbLine
 10
467.3257851597
 20
115.8905528846
 30
0.0
 11
467.3257851597
 21
215.8905528846
 31
0.0
  0
LINE
  5
A9
330
1F
100
AcDbEntity
  8
0
  6
Continuous
 62
     7
370
    25
100
AcDbLine
 10
467.3257851597
 20
15.8905528846
 30
0.0
 11
467.3257851597
 21
115.8905528846
 31
0.0
  0
LINE
  5
AA
330
1F
100
AcDbEntity
  8
0
  6
Continuous
 62
     7
370
    25
100
AcDbLine
 10
475.6334774674
 20
115.8905528846
 30
0.0
 11
475.6334774674
 21
205.8905528846
 31
0.0
  0
LINE
  5
AB
330
1F
100
AcDbEntity
  8
0
  6
Continuous
 62
     7
370
    25
100
AcDbLine
 10
475.6334774674
 20
25.8905528846
 30
0.0
 11
475.6334774674
 21
115.8905528846
 31
0.0
  0
LINE
  5
AC
330
1F
100
AcDbEntity
  8
0
  6
Continuous
 62
     7
370
    25
100
AcDbLine
 10
511.6334774674
 20
115.8905528846
 30
0.0
 11
511.6334774674
 21
205.8905528846
 31
0.0
  0
LINE
  5
AD
330
1F
100
AcDbEntity
  8
0
  6
Continuous
 62
     7
370
    25
100
AcDbLine
 10
511.6334774674
 20
25.8905528846
 30
0.0
 11
511.6334774674
 21
115.8905528846
 31
0.0
  0
LINE
  5
AE
330
1F
100
AcDbEntity
  8
0
  6
Continuous
 62
     7
370
    25
100
AcDbLine
 10
519.9411697751
 20
115.8905528846
 30
0.0
 11
519.9411697751
 21
195.8905528846
 31
0.0
  0
LINE
  5
AF
330
1F
100
AcDbEntity
  8
0
  6
Continuous
 62
     7
370
    25
100
AcDbLine
 10
519.9411697751
 20
35.8905528846
 30
0.0
 11
519.9411697751
 21
115.8905528846
 31
0.0
  0
LINE
  5
B0
330
1F
100
AcDbEntity
  8
0
  6
Continuous
 62
     7
370
    25
100
AcDbLine
 10
555.9411697751
 20
115.8905528846
 30
0.0
 11
555.9411697751
 21
195.8905528846
 31
0.0
  0
LINE
  5
B1
330
1F
100
AcDbEntity
  8
0
  6
Continuous
 62
     7
370
    25
100
AcDbLine
 10
555.9411697751
 20
35.8905528846
 30
0.0
 11
555.9411697751
 21
115.8905528846
 31
0.0
  0
LINE
  5
B2
330
1F
100
AcDbEntity
  8
0
  6
Continuous
 62
     7
370
    25
100
AcDbLine
 10
-102.4603826448
 20
228.3905528846
 30
0.0
 11
-138.4603826448
 21
228.3905528846
 31
0.0
  0
LINE
  5
B3
330
1F
100
AcDbEntity
  8
0
  6
Continuous
 62
     7
370
    25
100
AcDbLine
 10
-138.4603826448
 20
3.3905528846
 30
0.0
 11
-102.4603826448
 21
3.3905528846
 31
0.0
  0
LINE
  5
B4
330
1F
100
AcDbEntity
  8
0
  6
Continuous
 62
     7
370
    25
100
AcDbLine
 10
-138.4603826448
 20
228.3905528846
 30
0.0
 11
-148.8449980294
 21
215.8905528846
 31
0.0
  0
LINE
  5
B5
330
1F
100
AcDbEntity
  8
0
  6
Continuous
 62
     7
370
    25
100
AcDbLine
 10
-148.8449980294
 20
15.8905528846
 30
0.0
 11
-138.4603826448
 21
3.3905528846
 31
0.0
  0
LINE
  5
B6
330
1F
100
AcDbEntity
  8
0
  6
Continuous
 62
     7
370
    25
100
AcDbLine
 10
-148.8449980294
 20
215.8905528846
 30
0.0
 11
-184.8449980294
 21
215.8905528846
 31
0.0
  0
LINE
  5
B7
330
1F
100
AcDbEntity
  8
0
  6
Continuous
 62
     7
370
    25
100
AcDbLine
 10
-184.8449980294
 20
15.8905528846
 30
0.0
 11
-148.8449980294
 21
15.8905528846
 31
0.0
  0
LINE
  5
B8
330
1F
100
AcDbEntity
  8
0
  6
Continuous
 62
     7
370
    25
100
AcDbLine
 10
-184.8449980294
 20
215.8905528846
 30
0.0
 11
-193.1526903371
 21
205.8905528846
 31
0.0
  0
LINE
  5
B9
330
1F
100
AcDbEntity
  8
0
  6
Continuous
 62
     7
370
    25
100
AcDbLine
 10
-193.1526903371
 20
25.8905528846
 30
0.0
 11
-184.8449980294
 21
15.8905528846
 31
0.0
  0
LINE
  5
BA
330
1F
100
AcDbEntity
  8
0
  6
Continuous
 62
     7
370
    25
100
AcDbLine
 10
-193.1526903371
 20
205.8905528846
 30
0.0
 11
-229.1526903371
 21
205.8905528846
 31
0.0
  0
LINE
  5
BB
330
1F
100
AcDbEntity
  8
0
  6
Continuous
 62
     7
370
    25
100
AcDbLine
 10
-229.1526903371
 20
25.8905528846
 30
0.0
 11
-193.1526903371
 21
25.8905528846
 31
0.0
  0
LINE
  5
BC
330
1F
100
AcDbEntity
  8
0
  6
Continuous
 62
     7
370
    25
100
AcDbLine
 10
-229.1526903371
 20
205.8905528846
 30
0.0
 11
-237.4603826448
 21
195.8905528846
 31
0.0
  0
LINE
  5
BD
330
1F
100
AcDbEntity
  8
0
  6
Continuous
 62
     7
370
    25
100
AcDbLine
 10
-237.4603826448
 20
35.8905528846
 30
0.0
 11
-229.1526903371
 21
25.8905528846
 31
0.0
  0
LINE
  5
BE
330
1F
100
AcDbEntity
  8
0
  6
Continuous
 62
     7
370
    25
100
AcDbLine
 10
-237.4603826448
 20
195.8905528846
 30
0.0
 11
-273.4603826448
 21
195.8905528846
 31
0.0
  0
LINE
  5
BF
330
1F
100
AcDbEntity
  8
0
  6
Continuous
 62
     7
370
    25
100
AcDbLine
 10
-273.4603826448
 20
35.8905528846
 30
0.0
 11
-237.4603826448
 21
35.8905528846
 31
0.0
  0
LINE
  5
C0
330
1F
100
AcDbEntity
  8
0
  6
Continuous
 62
     7
370
    25
100
AcDbLine
 10
-138.4603826448
 20
228.3905528846
 30
0.0
 11
-138.4603826448
 21
3.3905528846
 31
0.0
  0
LINE
  5
C1
330
1F
100
AcDbEntity
  8
0
  6
Continuous
 62
     7
370
    25
100
AcDbLine
 10
-102.4603826448
 20
228.3905528846
 30
0.0
 11
-102.4603826448
 21
3.3905528846
 31
0.0
  0
LINE
  5
C2
330
1F
100
AcDbEntity
  8
0
  6
Continuous
 62
     7
370
    25
100
AcDbLine
 10
-148.8449980294
 20
215.8905528846
 30
0.0
 11
-148.8449980294
 21
15.8905528846
 31
0.0
  0
LINE
  5
C3
330
1F
100
AcDbEntity
  8
0
  6
Continuous
 62
     7
370
    25
100
AcDbLine
 10
-184.8449980294
 20
215.8905528846
 30
0.0
 11
-184.8449980294
 21
15.8905528846
 31
0.0
  0
LINE
  5
C4
330
1F
100
AcDbEntity
  8
0
  6
Continuous
 62
     7
370
    25
100
AcDbLine
 10
-193.1526903371
 20
205.8905528846
 30
0.0
 11
-193.1526903371
 21
25.8905528846
 31
0.0
  0
LINE
  5
C5
330
1F
100
AcDbEntity
  8
0
  6
Continuous
 62
     7
370
    25
100
AcDbLine
 10
-229.1526903371
 20
205.8905528846
 30
0.0
 11
-229.1526903371
 21
25.8905528846
 31
0.0
  0
LINE
  5
C6
330
1F
100
AcDbEntity
  8
0
  6
Continuous
 62
     7
370
    25
100
AcDbLine
 10
-237.4603826448
 20
195.8905528846
 30
0.0
 11
-237.4603826448
 21
35.8905528846
 31
0.0
  0
LINE
  5
C7
330
1F
100
AcDbEntity
  8
0
  6
Continuous
 62
     7
370
    25
100
AcDbLine
 10
-273.4603826448
 20
195.8905528846
 30
0.0
 11
-273.4603826448
 21
35.8905528846
 31
0.0
  0
LINE
  5
C8
330
1F
100
AcDbEntity
  8
0
  6
Continuous
 62
     7
370
    25
100
AcDbLine
 10
248.8914362981
 20
339.8969689835
 30
0.0
 11
248.8914362981
 21
375.8969689835
 31
0.0
  0
LINE
  5
C9
330
1F
100
AcDbEntity
  8
0
  6
Continuous
 62
     7
370
    25
100
AcDbLine
 10
23.8914362981
 20
375.8969689835
 30
0.0
 11
23.8914362981
 21
339.8969689835
 31
0.0
  0
LINE
  5
CA
330
1F
100
AcDbEntity
  8
0
  6
Continuous
 62
     7
370
    25
100
AcDbLine
 10
248.8914362981
 20
375.8969689835
 30
0.0
 11
236.3914362981
 21
386.2815843681
 31
0.0
  0
LINE
  5
CB
330
1F
100
AcDbEntity
  8
0
  6
Continuous
 62
     7
370
    25
100
AcDbLine
 10
36.3914362981
 20
386.2815843681
 30
0.0
 11
23.8914362981
 21
375.8969689835
 31
0.0
  0
LINE
  5
CC
330
1F
100
AcDbEntity
  8
0
  6
Continuous
 62
     7
370
    25
100
AcDbLine
 10
236.3914362981
 20
386.2815843681
 30
0.0
 11
236.3914362981
 21
422.2815843681
 31
0.0
  0
LINE
  5
CD
330
1F
100
AcDbEntity
  8
0
  6
Continuous
 62
     7
370
    25
100
AcDbLine
 10
36.3914362981
 20
422.2815843681
 30
0.0
 11
36.3914362981
 21
386.2815843681
 31
0.0
  0
LINE
  5
CE
330
1F
100
AcDbEntity
  8
0
  6
Continuous
 62
     7
370
    25
100
AcDbLine
 10
236.3914362981
 20
422.2815843681
 30
0.0
 11
226.3914362981
 21
430.5892766758
 31
0.0
  0
LINE
  5
CF
330
1F
100
AcDbEntity
  8
0
  6
Continuous
 62
     7
370
    25
100
AcDbLine
 10
46.3914362981
 20
430.5892766758
 30
0.0
 11
36.3914362981
 21
422.2815843681
 31
0.0
  0
LINE
  5
D0
330
1F
100
AcDbEntity
  8
0
  6
Continuous
 62
     7
370
    25
100
AcDbLine
 10
226.3914362981
 20
430.5892766758
 30
0.0
 11
226.3914362981
 21
466.5892766758
 31
0.0
  0
LINE
  5
D1
330
1F
100
AcDbEntity
  8
0
  6
Continuous
 62
     7
370
    25
100
AcDbLine
 10
46.3914362981
 20
466.5892766758
 30
0.0
 11
46.3914362981
 21
430.5892766758
 31
0.0
  0
LINE
  5
D2
330
1F
100
AcDbEntity
  8
0
  6
Continuous
 62
     7
370
    25
100
AcDbLine
 10
226.3914362981
 20
466.5892766758
 30
0.0
 11
216.3914362981
 21
474.8969689835
 31
0.0
  0
LINE
  5
D3
330
1F
100
AcDbEntity
  8
0
  6
Continuous
 62
     7
370
    25
100
AcDbLine
 10
56.3914362981
 20
474.8969689835
 30
0.0
 11
46.3914362981
 21
466.5892766758
 31
0.0
  0
LINE
  5
D4
330
1F
100
AcDbEntity
  8
0
  6
Continuous
 62
     7
370
    25
100
AcDbLine
 10
216.3914362981
 20
474.8969689835
 30
0.0
 11
216.3914362981
 21
510.8969689835
 31
0.0
  0
LINE
  5
D5
330
1F
100
AcDbEntity
  8
0
  6
Continuous
 62
     7
370
    25
100
AcDbLine
 10
56.3914362981
 20
510.8969689835
 30
0.0
 11
56.3914362981
 21
474.8969689835
 31
0.0
  0
LINE
  5
D6
330
1F
100
AcDbEntity
  8
0
  6
Continuous
 62
     7
370
    25
100
AcDbLine
 10
248.8914362981
 20
375.8969689835
 30
0.0
 11
23.8914362981
 21
375.8969689835
 31
0.0
  0
LINE
  5
D7
330
1F
100
AcDbEntity
  8
0
  6
Continuous
 62
     7
370
    25
100
AcDbLine
 10
248.8914362981
 20
339.8969689835
 30
0.0
 11
23.8914362981
 21
339.8969689835
 31
0.0
  0
LINE
  5
D8
330
1F
100
AcDbEntity
  8
0
  6
Continuous
 62
     7
370
    25
100
AcDbLine
 10
236.3914362981
 20
386.2815843681
 30
0.0
 11
36.3914362981
 21
386.2815843681
 31
0.0
  0
LINE
  5
D9
330
1F
100
AcDbEntity
  8
0
  6
Continuous
 62
     7
370
    25
100
AcDbLine
 10
236.3914362981
 20
422.2815843681
 30
0.0
 11
36.3914362981
 21
422.2815843681
 31
0.0
  0
LINE
  5
DA
330
1F
100
AcDbEntity
  8
0
  6
Continuous
 62
     7
370
    25
100
AcDbLine
 10
226.3914362981
 20
430.5892766758
 30
0.0
 11
46.3914362981
 21
430.5892766758
 31
0.0
  0
LINE
  5
DB
330
1F
100
AcDbEntity
  8
0
  6
Continuous
 62
     7
370
    25
100
AcDbLine
 10
226.3914362981
 20
466.5892766758
 30
0.0
 11
46.3914362981
 21
466.5892766758
 31
0.0
  0
LINE
  5
DC
330
1F
100
AcDbEntity
  8
0
  6
Continuous
 62
     7
370
    25
100
AcDbLine
 10
216.3914362981
 20
474.8969689835
 30
0.0
 11
56.3914362981
 21
474.8969689835
 31
0.0
  0
LINE
  5
DD
330
1F
100
AcDbEntity
  8
0
  6
Continuous
 62
     7
370
    25
100
AcDbLine
 10
216.3914362981
 20
510.8969689835
 30
0.0
 11
56.3914362981
 21
510.8969689835
 31
0.0
  0
LINE
  5
DE
330
1F
100
AcDbEntity
  8
0
  6
Continuous
 62
     7
370
    25
100
AcDbLine
 10
459.9528376235
 20
-110.0890193671
 30
0.0
 11
434.4969935008
 21
-95.3936733543
 31
0.0
  0
LINE
  5
DF
330
1F
100
AcDbEntity
  8
0
  6
Continuous
 62
     7
370
    25
100
AcDbLine
 10
354.5034948899
 20
-233.9614913352
 30
0.0
 11
379.9593390126
 21
-248.6568373481
 31
0.0
  0
LINE
  5
E0
330
1F
100
AcDbEntity
  8
0
  6
Continuous
 62
     7
370
    25
100
AcDbLine
 10
496.2827009762
 20
-119.5151104514
 30
0.0
 11
470.8268568534
 21
-104.8197644386
 31
0.0
  0
LINE
  5
E1
330
1F
100
AcDbEntity
  8
0
  6
Continuous
 62
     7
370
    25
100
AcDbLine
 10
380.8341709162
 20
-260.7085596671
 30
0.0
 11
406.2900150389
 21
-275.4039056799
 31
0.0
  0
LINE
  5
E2
330
1F
100
AcDbEntity
  8
0
  6
Continuous
 62
     7
370
    25
100
AcDbLine
 10
532.6125643288
 20
-128.9412015357
 30
0.0
 11
507.1567202061
 21
-114.2458555229
 31
0.0
  0
LINE
  5
E3
330
1F
100
AcDbEntity
  8
0
  6
Continuous
 62
     7
370
    25
100
AcDbLine
 10
407.1648469425
 20
-287.455627999
 30
0.0
 11
432.6206910652
 21
-302.1509740118
 31
0.0
  0
LINE
  5
E4
330
1F
100
AcDbEntity
  8
0
  6
Continuous
 62
     7
370
    25
100
AcDbLine
 10
571.660932489
 20
-137.0499788878
 30
0.0
 11
546.2050883663
 21
-122.354632875
 31
0.0
  0
LINE
  5
E5
330
1F
100
AcDbEntity
  8
0
  6
Continuous
 62
     7
370
    25
100
AcDbLine
 10
433.7142309447
 20
-317.2156269107
 30
0.0
 11
459.1700750674
 21
-331.9109729235
 31
0.0
  0
LWPOLYLINE
  5
E6
330
1F
100
AcDbEntity
  8
0
  6
Continuous
 62
     7
370
    25
100
AcDbPolyline
 90
      114
 70
   128
 43
0.0
 10
337.9317017004
 20
-197.3339068177
 10
338.0191267619
 20
-193.6531124782
 10
338.2811317206
 20
-189.8827564355
 10
338.7169067342
 20
-186.0344926442
 10
339.3251048471
 20
-182.120215867
 10
340.1038461537
 20
-178.1520249093
 10
341.0507236093
 20
-174.1421852217
 10
342.16281047
 20
-170.1030909891
 10
343.436669339
 20
-166.0472268201
 10
344.8683627916
 20
-161.9871291586
 10
346.4534655453
 20
-157.9353475337
 10
348.1870781383
 20
-153.9044057702
 10
350.0638420736
 20
-149.9067632781
 10
352.0779563812
 20
-145.9547765413
 10
354.2231955494
 20
-142.0606609242
 10
356.4929287667
 20
-138.2364529152
 10
358.8801404179
 20
-134.4939729219
 10
361.3774517686
 20
-130.8447887356
 10
363.9771437725
 20
-127.3001797755
 10
366.6711809306
 20
-123.8711022247
 10
369.4512361284
 20
-120.5681551654
 10
372.3087163746
 20
-117.4015478177
 10
375.2347893616
 20
-114.3810679835
 10
378.2204107655
 20
-111.5160517928
 10
381.2563522015
 20
-108.8153548464
 10
384.3332297486
 20
-106.2873248439
 10
387.4415329548
 20
-103.9397757812
 10
390.5716542329
 20
-101.7799637978
 10
393.7139185575
 20
-99.8145647488
 10
396.8586133695
 20
-98.04965357
 10
399.9960185976
 20
-96.4906855008
 10
403.1164367019
 20
-95.1424792221
 10
406.210222649
 20
-94.0092019623
 10
409.2678137238
 20
-93.0943566164
 10
412.2797590874
 20
-92.4007709189
 10
415.2367489894
 20
-91.9305887036
 10
418.1296435434
 20
-91.6852632766
 10
420.9495009782
 20
-91.6655529249
 10
423.6876052761
 20
-91.8715185719
 10
426.3354931135
 20
-92.3025235897
 10
428.8849800209
 20
-92.9572357665
 10
431.3281856803
 20
-93.8336314244
 10
433.6575582832
 20
-94.9290016747
 10
435.8658978722
 20
-96.2399607908
 10
437.9463785963
 20
-97.7624566731
 10
439.8925698087
 20
-99.491783374
 10
441.698455944
 20
-101.422595644
 10
443.3584551116
 20
-103.5489254528
 10
444.8674363493
 20
-105.8642004369
 10
446.2207354823
 20
-108.3612642141
 10
447.4141695409
 20
-111.0323985033
 10
448.4440496885
 20
-113.8693469814
 10
449.3071926247
 20
-116.8633408033
 10
450.0009304243
 20
-120.0051257057
 10
450.5231187832
 20
-123.2849906116
 10
450.8721436474
 20
-126.6927976463
 10
451.046926201
 20
-130.2180134737
 10
451.046926201
 20
-133.8497418537
 10
450.8721436474
 20
-137.576757322
 10
450.5231187832
 20
-141.3875398874
 10
450.0009304243
 20
-145.2703106393
 10
449.3071926247
 20
-149.2130681558
 10
448.4440496885
 20
-153.2036255995
 10
447.4141695409
 20
-157.2296483859
 10
446.2207354823
 20
-161.2786923094
 10
444.8674363493
 20
-165.3382420072
 10
443.3584551116
 20
-169.3957496438
 10
441.698455944
 20
-173.4386736957
 10
439.8925698087
 20
-177.4545177163
 10
437.9463785963
 20
-181.4308689619
 10
435.8658978722
 20
-185.3554367587
 10
433.6575582832
 20
-189.2160904925
 10
431.3281856803
 20
-193.0008971038
 10
428.8849800209
 20
-196.6981579723
 10
426.3354931135
 20
-200.2964450766
 10
423.6876052761
 20
-203.7846363174
 10
420.9495009782
 20
-207.1519498956
 10
418.1296435434
 20
-210.3879776377
 10
415.2367489894
 20
-213.4827171676
 10
412.2797590874
 20
-216.4266028226
 10
409.2678137238
 20
-219.2105352209
 10
406.210222649
 20
-221.8259093871
 10
403.1164367019
 20
-224.2646413494
 10
399.9960185976
 20
-226.5191931271
 10
396.8586133695
 20
-228.5825960299
 10
393.7139185575
 20
-230.4484721976
 10
390.5716542329
 20
-232.111054314
 10
387.4415329548
 20
-233.565203433
 10
384.3332297486
 20
-234.806424863
 10
381.2563522015
 20
-235.8308820597
 10
378.2204107655
 20
-236.6354084846
 10
375.2347893616
 20
-237.2175173926
 10
372.3087163746
 20
-237.5754095185
 10
369.4512361284
 20
-237.7079786382
 10
366.6711809306
 20
-237.6148149881
 10
363.9771437725
 20
-237.2962065319
 10
361.3774517686
 20
-236.7531380698
 10
358.8801404179
 20
-235.9872881955
 10
356.4929287667
 20
-235.001024107
 10
354.2231955494
 20
-233.7973942901
 10
352.0779563812
 20
-232.3801190956
 10
350.0638420736
 20
-230.7535792398
 10
348.1870781383
 20
-228.9228022643
 10
346.4534655453
 20
-226.8934469958
 10
344.8683627916
 20
-224.6717860551
 10
343.436669339
 20
-222.2646864689
 10
342.16281047
 20
-219.6795884439
 10
341.0507236093
 20
-216.9244823702
 10
340.1038461537
 20
-214.0078841226
 10
339.3251048471
 20
-210.9388087393
 10
338.7169067342
 20
-207.7267425563
 10
338.2811317206
 20
-204.3816138861
 10
338.0191267619
 20
-200.9137623298
 10
337.9317017004
 20
-197.3339068177
  0
LWPOLYLINE
  5
E7
330
1F
100
AcDbEntity
  8
0
  6
Continuous
 62
     7
370
    25
100
AcDbPolyline
 90
       58
 70
   128
 43
0.0
 10
459.9528376235
 20
-110.0890193671
 10
461.3217419949
 20
-110.9353068036
 10
463.402222719
 20
-112.4578026859
 10
465.3484139314
 20
-114.1871293868
 10
467.1543000668
 20
-116.1179416568
 10
468.8142992344
 20
-118.2442714656
 10
470.323280472
 20
-120.5595464498
 10
471.6765796051
 20
-123.0566102269
 10
472.8700136636
 20
-125.7277445161
 10
473.8998938112
 20
-128.5646929942
 10
474.7630367475
 20
-131.5586868161
 10
475.456774547
 20
-134.7004717185
 10
475.978962906
 20
-137.9803366244
 10
476.3279877702
 20
-141.3881436591
 10
476.5027703237
 20
-144.9133594865
 10
476.5027703237
 20
-148.5450878665
 10
476.3279877701
 20
-152.2721033348
 10
475.978962906
 20
-156.0828859002
 10
475.456774547
 20
-159.9656566521
 10
474.7630367475
 20
-163.9084141687
 10
473.8998938112
 20
-167.8989716123
 10
472.8700136636
 20
-171.9249943988
 10
471.6765796051
 20
-175.9740383222
 10
470.323280472
 20
-180.03358802
 10
468.8142992344
 20
-184.0910956566
 10
467.1543000668
 20
-188.1340197085
 10
465.3484139314
 20
-192.1498637292
 10
463.402222719
 20
-196.1262149748
 10
461.3217419949
 20
-200.0507827715
 10
459.1134024059
 20
-203.9114365053
 10
456.784029803
 20
-207.6962431166
 10
454.3408241436
 20
-211.3935039851
 10
451.7913372362
 20
-214.9917910894
 10
449.1434493988
 20
-218.4799823303
 10
446.405345101
 20
-221.8472959084
 10
443.5854876661
 20
-225.0833236505
 10
440.6925931121
 20
-228.1780631804
 10
437.7356032101
 20
-231.1219488354
 10
434.7236578465
 20
-233.9058812337
 10
431.6660667717
 20
-236.5212553999
 10
428.5722808246
 20
-238.9599873622
 10
425.4518627203
 20
-241.2145391399
 10
422.3144574922
 20
-243.2779420427
 10
419.1697626802
 20
-245.1438182105
 10
416.0274983557
 20
-246.8064003268
 10
412.8973770775
 20
-248.2605494458
 10
409.7890738714
 20
-249.5017708758
 10
406.7121963242
 20
-250.5262280725
 10
403.6762548882
 20
-251.3307544974
 10
400.6906334843
 20
-251.9128634054
 10
397.7645604973
 20
-252.2707555313
 10
394.9070802511
 20
-252.403324651
 10
392.1270250533
 20
-252.3101610009
 10
389.4329878952
 20
-251.9915525447
 10
386.8332958913
 20
-251.4484840826
 10
384.3359845406
 20
-250.6826342083
 10
381.9487728894
 20
-249.6963701198
 10
379.9593390126
 20
-248.6568373481
  0
LWPOLYLINE
  5
E8
330
1F
100
AcDbEntity
  8
0
  6
Continuous
 62
     7
370
    25
100
AcDbPolyline
 90
      103
 70
   128
 43
0.0
 10
348.2554607057
 20
-191.3741276014
 10
348.3431718576
 20
-188.0360317364
 10
348.6059725949
 20
-184.609329272
 10
349.0428660243
 20
-181.1070188643
 10
349.6521948595
 20
-177.5423859765
 10
350.4316477074
 20
-173.9289524819
 10
351.3782678365
 20
-170.2804253716
 10
352.4884643922
 20
-166.6106447585
 10
353.7580260189
 20
-162.9335313776
 10
355.1821368344
 20
-159.2630337794
 10
356.7553946985
 20
-155.6130754185
 10
358.4718317054
 20
-151.9975018372
 10
360.3249368216
 20
-148.4300281445
 10
362.3076805845
 20
-144.9241869901
 10
364.412541768
 20
-141.4932772304
 10
366.6315359126
 20
-138.1503134812
 10
368.9562456135
 20
-134.907976749
 10
371.3778524505
 20
-131.7785663278
 10
373.8871704394
 20
-128.773953143
 10
376.4746808776
 20
-125.9055347218
 10
379.1305684517
 20
-123.1841919576
 10
381.8447584703
 20
-120.6202478357
 10
384.6069550812
 20
-118.2234282744
 10
387.4066803263
 20
-116.0028252312
 10
390.233313889
 20
-113.9668622141
 10
393.0761333798
 20
-112.1232623282
 10
395.9243550108
 20
-110.4790189794
 10
398.7671745016
 20
-109.0403693458
 10
401.5938080643
 20
-107.8127707183
 10
404.3935333095
 20
-106.800879799
 10
407.1557299203
 20
-106.0085350367
 10
409.869919939
 20
-105.4387420665
 10
412.525807513
 20
-105.0936623083
 10
415.1133179512
 20
-104.9746047679
 10
417.6226359401
 20
-105.0820210712
 10
420.0442427771
 20
-105.4155037514
 10
422.368952478
 20
-105.9737877946
 10
424.5879466226
 20
-106.754755438
 10
426.6928078061
 20
-107.755444204
 10
428.6755515691
 20
-108.9720581373
 10
430.5286566852
 20
-110.3999822045
 10
432.2450936921
 20
-112.0337998004
 10
433.8183515563
 20
-113.8673132955
 10
435.2424623718
 20
-115.8935675448
 10
436.5120239984
 20
-118.1048762721
 10
437.6222205542
 20
-120.4928512259
 10
438.5688406832
 20
-123.0484339992
 10
439.3482935311
 20
-125.7619303913
 10
439.9576223663
 20
-128.6230471809
 10
440.3945157957
 20
-131.6209311719
 10
440.657316533
 20
-134.7442103636
 10
440.7450276849
 20
-137.9810370882
 10
440.657316533
 20
-141.3191329532
 10
440.3945157957
 20
-144.7458354176
 10
439.9576223663
 20
-148.2481458252
 10
439.3482935311
 20
-151.8127787131
 10
438.5688406832
 20
-155.4262122077
 10
437.6222205542
 20
-159.074739318
 10
436.5120239984
 20
-162.7445199311
 10
435.2424623718
 20
-166.421633312
 10
433.8183515563
 20
-170.0921309102
 10
432.2450936921
 20
-173.7420892711
 10
430.5286566852
 20
-177.3576628524
 10
428.6755515691
 20
-180.9251365451
 10
426.6928078061
 20
-184.4309776994
 10
424.5879466226
 20
-187.8618874592
 10
422.368952478
 20
-191.2048512084
 10
420.0442427771
 20
-194.4471879406
 10
417.6226359401
 20
-197.5765983618
 10
415.1133179512
 20
-200.5812115465
 10
412.525807513
 20
-203.4496299678
 10
409.869919939
 20
-206.170972732
 10
407.1557299203
 20
-208.7349168539
 10
404.3935333095
 20
-211.1317364152
 10
401.5938080643
 20
-213.3523394584
 10
398.7671745016
 20
-215.3883024755
 10
395.9243550108
 20
-217.2319023613
 10
393.0761333798
 20
-218.8761457102
 10
390.233313889
 20
-220.3147953438
 10
387.4066803263
 20
-221.5423939713
 10
384.6069550812
 20
-222.5542848906
 10
381.8447584703
 20
-223.3466296529
 10
379.1305684517
 20
-223.9164226231
 10
376.4746808776
 20
-224.2615023813
 10
373.8871704394
 20
-224.3805599217
 10
371.3778524505
 20
-224.2731436184
 10
368.9562456135
 20
-223.9396609382
 10
366.6315359126
 20
-223.381376895
 10
364.412541768
 20
-222.6004092515
 10
362.3076805845
 20
-221.5997204856
 10
360.3249368216
 20
-220.3831065523
 10
358.4718317054
 20
-218.9551824851
 10
356.7553946985
 20
-217.3213648892
 10
355.1821368344
 20
-215.4878513941
 10
353.7580260189
 20
-213.4615971448
 10
352.4884643922
 20
-211.2502884175
 10
351.3782678365
 20
-208.8623134637
 10
350.4316477074
 20
-206.3067306903
 10
349.6521948595
 20
-203.5932342983
 10
349.0428660243
 20
-200.7321175087
 10
348.6059725949
 20
-197.7342335177
 10
348.3431718576
 20
-194.610954326
 10
348.2554607057
 20
-191.3741276014
  0
LWPOLYLINE
  5
E9
330
1F
100
AcDbEntity
  8
0
  6
Continuous
 62
     7
370
    25
100
AcDbPolyline
 90
       81
 70
   128
 43
0.0
 10
445.2100598287
 20
-101.5781949042
 10
445.496234985
 20
-101.5195015156
 10
448.6369105403
 20
-100.9907227596
 10
451.7150753477
 20
-100.6860793166
 10
454.7222923712
 20
-100.6064061933
 10
457.6503190382
 20
-100.7519217681
 10
460.491129831
 20
-101.1222271929
 10
463.2369382848
 20
-101.7163074862
 10
465.8802183293
 20
-102.5325343154
 10
468.4137249178
 20
-103.5686704594
 10
470.8305138848
 20
-104.821875941
 10
473.1239609797
 20
-106.2887158112
 10
475.2877800234
 20
-107.9651695637
 10
477.3160401384
 20
-109.8466421555
 10
479.2031820046
 20
-111.9279766008
 10
480.9440330974
 20
-114.2034681068
 10
482.533821865
 20
-116.6668797092
 10
483.9681908067
 20
-119.3114593682
 10
485.2432084171
 20
-122.1299584747
 10
486.3553799616
 20
-125.1146517185
 10
487.3016570551
 20
-128.257358263
 10
488.079446018
 20
-131.549464168
 10
488.6866149849
 20
-134.981946
 10
489.1214997476
 20
-138.5453955649
 10
489.3829083174
 20
-142.2300456952
 10
489.4701241916
 20
-146.0257970208
 10
489.3829083174
 20
-149.9222456514
 10
489.1214997476
 20
-153.908711692
 10
488.6866149849
 20
-157.9742685164
 10
488.079446018
 20
-162.1077727158
 10
487.3016570551
 20
-166.2978946426
 10
486.3553799616
 20
-170.5331494637
 10
485.2432084171
 20
-174.8019286403
 10
483.9681908067
 20
-179.0925317451
 10
482.533821865
 20
-183.3931985334
 10
480.9440330974
 20
-187.6921411765
 10
479.2031820046
 20
-191.9775765713
 10
477.3160401384
 20
-196.2377586373
 10
475.2877800234
 20
-200.4610105117
 10
473.1239609797
 20
-204.6357565545
 10
470.8305138848
 20
-208.750554077
 10
468.4137249178
 20
-212.7941247053
 10
465.8802183293
 20
-216.7553852933
 10
463.2369382848
 20
-220.6234783012
 10
460.491129831
 20
-224.3878015547
 10
457.6503190382
 20
-228.0380373056
 10
454.7222923712
 20
-231.5641805114
 10
451.7150753477
 20
-234.9565662587
 10
448.6369105403
 20
-238.2058962538
 10
445.496234985
 20
-241.3032643093
 10
442.3016570551
 20
-244.2401807544
 10
439.0619328667
 20
-247.0085957054
 10
435.7859422785
 20
-249.6009211294
 10
432.4826645531
 20
-252.0100516425
 10
429.1611537452
 20
-254.2293839855
 10
425.8305138848
 20
-256.2528351226
 10
422.4998740245
 20
-258.074858915
 10
419.1783632165
 20
-259.690461322
 10
415.8750854911
 20
-261.0952140899
 10
412.599094903
 20
-262.2852668888
 10
409.3593707145
 20
-263.2573578668
 10
406.1647927846
 20
-264.0088225901
 10
403.0241172293
 20
-264.5376013462
 10
399.945952422
 20
-264.8422447891
 10
396.9387353984
 20
-264.9219179124
 10
394.0107087314
 20
-264.7764023377
 10
391.1698979386
 20
-264.4060969129
 10
388.4240894848
 20
-263.8120166195
 10
385.7808094403
 20
-262.9957897903
 10
383.2473028518
 20
-261.9596536463
 10
380.8305138848
 20
-260.7064481647
 10
378.5370667899
 20
-259.2396082946
 10
376.3732477462
 20
-257.563154542
 10
374.3449876312
 20
-255.6816819502
 10
372.457845765
 20
-253.6003475049
 10
370.7169946722
 20
-251.324855999
 10
369.1272059047
 20
-248.8614443965
 10
367.6928369629
 20
-246.2168647376
 10
366.4178193525
 20
-243.3983656311
 10
365.3056478081
 20
-240.4136723872
 10
365.2165612178
 20
-240.1460128851
  0
LWPOLYLINE
  5
EA
330
1F
100
AcDbEntity
  8
0
  6
Continuous
 62
     7
370
    25
100
AcDbPolyline
 90
       62
 70
   128
 43
0.0
 10
496.2827009762
 20
-119.5151104514
 10
496.2863580075
 20
-119.5172219538
 10
498.5798051024
 20
-120.984061824
 10
500.7436241462
 20
-122.6605155765
 10
502.7718842611
 20
-124.5419881683
 10
504.6590261274
 20
-126.6233226137
 10
506.3998772202
 20
-128.8988141196
 10
507.9896659877
 20
-131.362225722
 10
509.4240349294
 20
-134.006805381
 10
510.6990525399
 20
-136.8253044875
 10
511.8112240843
 20
-139.8099977313
 10
512.7575011778
 20
-142.9527042759
 10
513.5352901408
 20
-146.2448101808
 10
514.1424591076
 20
-149.6772920128
 10
514.5773438703
 20
-153.2407415777
 10
514.8387524402
 20
-156.925391708
 10
514.9259683143
 20
-160.7211430337
 10
514.8387524402
 20
-164.6175916642
 10
514.5773438703
 20
-168.6040577049
 10
514.1424591076
 20
-172.6696145292
 10
513.5352901408
 20
-176.8031187286
 10
512.7575011778
 20
-180.9932406554
 10
511.8112240843
 20
-185.2284954765
 10
510.6990525399
 20
-189.4972746531
 10
509.4240349294
 20
-193.7878777579
 10
507.9896659877
 20
-198.0885445462
 10
506.3998772202
 20
-202.3874871893
 10
504.6590261274
 20
-206.6729225841
 10
502.7718842611
 20
-210.9331046501
 10
500.7436241462
 20
-215.1563565245
 10
498.5798051024
 20
-219.3311025673
 10
496.2863580075
 20
-223.4459000898
 10
493.8695690406
 20
-227.4894707181
 10
491.3360624521
 20
-231.4507313062
 10
488.6927824075
 20
-235.318824314
 10
485.9469739538
 20
-239.0831475675
 10
483.1061631609
 20
-242.7333833184
 10
480.1781364939
 20
-246.2595265242
 10
477.1709194704
 20
-249.6519122715
 10
474.092754663
 20
-252.9012422666
 10
470.9520791077
 20
-255.9986103221
 10
467.7575011778
 20
-258.9355267672
 10
464.5177769894
 20
-261.7039417182
 10
461.2417864012
 20
-264.2962671422
 10
457.9385086759
 20
-266.7053976553
 10
454.6169978679
 20
-268.9247299983
 10
451.2863580075
 20
-270.9481811354
 10
447.9557181472
 20
-272.7702049278
 10
444.6342073392
 20
-274.3858073348
 10
441.3309296138
 20
-275.7905601027
 10
438.0549390257
 20
-276.9806129016
 10
434.8152148372
 20
-277.9527038796
 10
431.6206369073
 20
-278.704168603
 10
428.479961352
 20
-279.232947359
 10
425.4017965447
 20
-279.5375908019
 10
422.3945795211
 20
-279.6172639252
 10
419.4665528541
 20
-279.4717483505
 10
416.6257420613
 20
-279.1014429257
 10
413.8799336076
 20
-278.5073626323
 10
411.236653563
 20
-277.6911358031
 10
408.7031469745
 20
-276.6549996591
 10
406.2900150389
 20
-275.4039056799
  0
LWPOLYLINE
  5
EB
330
1F
100
AcDbEntity
  8
0
  6
Continuous
 62
     7
370
    25
100
AcDbPolyline
 90
       32
 70
   128
 43
0.0
 10
378.1732844314
 20
-208.6453196106
 10
378.2609955833
 20
-205.3072237456
 10
378.5237963206
 20
-201.8805212812
 10
378.96068975
 20
-198.3782108735
 10
379.5700185852
 20
-194.8135779856
 10
380.3494714331
 20
-191.2001444911
 10
381.2960915621
 20
-187.5516173807
 10
382.4062881179
 20
-183.8818367677
 10
383.6758497446
 20
-180.2047233868
 10
385.09996056
 20
-176.5342257885
 10
386.6732184242
 20
-172.8842674276
 10
388.3896554311
 20
-169.2686938464
 10
390.2427605473
 20
-165.7012201537
 10
392.2255043102
 20
-162.1953789993
 10
394.3303654937
 20
-158.7644692396
 10
396.5493596383
 20
-155.4215054904
 10
398.8740693392
 20
-152.1791687582
 10
401.2956761762
 20
-149.049758337
 10
403.8049941651
 20
-146.0451451522
 10
406.3925046033
 20
-143.176726731
 10
409.0483921773
 20
-140.4553839668
 10
411.762582196
 20
-137.8914398449
 10
414.5247788069
 20
-135.4946202836
 10
417.324504052
 20
-133.2740172404
 10
420.1511376147
 20
-131.2380542233
 10
422.9939571055
 20
-129.3944543374
 10
425.8421787365
 20
-127.7502109886
 10
428.6849982273
 20
-126.311561355
 10
431.51163179
 20
-125.0839627275
 10
434.3113570352
 20
-124.0720718082
 10
437.073553646
 20
-123.2797270459
 10
438.5352612287
 20
-122.9464295657
  0
ARC
  5
EC
330
1F
100
AcDbEntity
  8
0
  6
Continuous
 62
     7
370
    25
100
AcDbCircle
 10
425.4478251463
 20
-209.3766690158
 30
0.0
 40
47.28019745894211
100
AcDbArc
 50
179.1136901337
 51
197.6090903195
  0
LWPOLYLINE
  5
ED
330
1F
100
AcDbEntity
  8
0
  6
Continuous
 62
     7
370
    25
100
AcDbPolyline
 90
       83
 70
   128
 43
0.0
 10
480.360860788
 20
-110.323627757
 10
482.9942951518
 20
-109.9277323191
 10
486.2431735381
 20
-109.6336625282
 10
489.4197485207
 20
-109.5663727687
 10
492.5161226336
 20
-109.7260303334
 10
495.524597803
 20
-110.1122382885
 10
498.4376944855
 20
-110.7240364602
 10
501.2481702638
 20
-111.5599038219
 10
503.9490378523
 20
-112.6177622755
 10
506.5335824686
 20
-113.8949818183
 10
508.9953785276
 20
-115.3883870813
 10
511.3283056163
 20
-117.0942652236
 10
513.5265637105
 20
-119.0083751635
 10
515.5846875941
 20
-121.125958122
 10
517.497560447
 20
-123.4417494542
 10
519.2604265658
 20
-125.949991738
 10
520.8689031875
 20
-128.6444490879
 10
522.3189913859
 20
-131.5184226583
 10
523.6070860132
 20
-134.5647672982
 10
524.7299846632
 20
-137.7759093148
 10
525.684895633
 20
-141.143865303
 10
526.4694448633
 20
-144.6602619937
 10
527.0816818413
 20
-148.3163570705
 10
527.5200844493
 20
-152.1030609052
 10
527.7835627494
 20
-156.0109591552
 10
527.871461693
 20
-160.0303361698
 10
527.7835627494
 20
-164.1511991445
 10
527.5200844493
 20
-168.3633029646
 10
527.0816818413
 20
-172.6561756763
 10
526.4694448633
 20
-177.0191445217
 10
525.684895633
 20
-181.4413624728
 10
524.7299846632
 20
-185.911835199
 10
523.6070860132
 20
-190.4194484007
 10
522.3189913859
 20
-194.9529954413
 10
520.8689031875
 20
-199.5012052085
 10
519.2604265658
 20
-204.0527701362
 10
517.497560447
 20
-208.5963743168
 10
515.5846875941
 20
-213.1207216345
 10
513.5265637105
 20
-217.614563849
 10
511.3283056163
 20
-222.0667285603
 10
508.9953785276
 20
-226.4661469857
 10
506.5335824686
 20
-230.8018814777
 10
503.9490378523
 20
-235.0631527171
 10
501.2481702638
 20
-239.2393665124
 10
498.4376944855
 20
-243.3201401379
 10
495.524597803
 20
-247.2953281474
 10
492.5161226336
 20
-251.1550475974
 10
489.4197485207
 20
-254.8897026169
 10
486.2431735381
 20
-258.4900082653
 10
482.9942951518
 20
-261.9470136153
 10
479.6811905853
 20
-265.2521240071
 10
476.3120967387
 20
-268.3971224154
 10
472.89538971
 20
-271.3741898786
 10
469.4395639712
 20
-274.175924938
 10
465.9532112497
 20
-276.7953620387
 10
462.4449991677
 20
-279.2259888475
 10
458.9236496931
 20
-281.461762443
 10
455.3979174555
 20
-283.4971243398
 10
451.8765679809
 20
-285.3270143076
 10
448.3683558989
 20
-286.9468829516
 10
444.8820031774
 20
-288.3527030231
 10
441.4261774387
 20
-289.5409794319
 10
438.0094704099
 20
-290.5087579356
 10
434.6403765633
 20
-291.2536324844
 10
431.3272719968
 20
-291.7737512028
 10
428.0783936105
 20
-292.0678209937
 10
424.9018186279
 20
-292.1351107532
 10
421.805444515
 20
-291.9754531885
 10
418.7969693456
 20
-291.5892452334
 10
415.8838726631
 20
-290.9774470616
 10
413.0733968848
 20
-290.1415797
 10
410.3725292963
 20
-289.0837212463
 10
407.78798468
 20
-287.8065017035
 10
405.3261886211
 20
-286.3130964406
 10
402.9932615323
 20
-284.6072182982
 10
400.7950034382
 20
-282.6931083584
 10
398.7368795545
 20
-280.5755253999
 10
396.8240067016
 20
-278.2597340677
 10
395.0611405829
 20
-275.7514917839
 10
393.4526639611
 20
-273.057034434
 10
392.0025757627
 20
-270.1830608636
 10
390.7144811354
 20
-267.1367162237
 10
390.3681748508
 20
-266.2124229855
  0
LWPOLYLINE
  5
EE
330
1F
100
AcDbEntity
  8
0
  6
Continuous
 62
     7
370
    25
100
AcDbPolyline
 90
       65
 70
   128
 43
0.0
 10
532.6125643288
 20
-128.9412015357
 10
534.4512226503
 20
-130.0837330941
 10
536.784149739
 20
-131.7896112364
 10
538.9824078332
 20
-133.7037211763
 10
541.0405317168
 20
-135.8213041348
 10
542.9534045697
 20
-138.137095467
 10
544.7162706885
 20
-140.6453377508
 10
546.3247473102
 20
-143.3397951007
 10
547.7748355086
 20
-146.2137686711
 10
549.0629301359
 20
-149.260113311
 10
550.1858287859
 20
-152.4712553276
 10
551.1407397557
 20
-155.8392113158
 10
551.9252889861
 20
-159.3556080065
 10
552.537525964
 20
-163.0117030833
 10
552.975928572
 20
-166.798406918
 10
553.2394068721
 20
-170.706305168
 10
553.3273058157
 20
-174.7256821826
 10
553.2394068721
 20
-178.8465451573
 10
552.975928572
 20
-183.0586489774
 10
552.537525964
 20
-187.3515216891
 10
551.9252889861
 20
-191.7144905345
 10
551.1407397557
 20
-196.1367084856
 10
550.1858287859
 20
-200.6071812118
 10
549.0629301359
 20
-205.1147944135
 10
547.7748355086
 20
-209.6483414541
 10
546.3247473102
 20
-214.1965512213
 10
544.7162706885
 20
-218.748116149
 10
542.9534045697
 20
-223.2917203296
 10
541.0405317168
 20
-227.8160676473
 10
538.9824078332
 20
-232.3099098618
 10
536.784149739
 20
-236.7620745731
 10
534.4512226503
 20
-241.1614929985
 10
531.9894265913
 20
-245.4972274905
 10
529.404881975
 20
-249.7584987299
 10
526.7040143865
 20
-253.9347125252
 10
523.8935386082
 20
-258.0154861507
 10
520.9804419257
 20
-261.9906741603
 10
517.9719667564
 20
-265.8503936102
 10
514.8755926434
 20
-269.5850486297
 10
511.6990176609
 20
-273.1853542781
 10
508.4501392745
 20
-276.6423596281
 10
505.1370347081
 20
-279.9474700199
 10
501.7679408614
 20
-283.0924684282
 10
498.3512338327
 20
-286.0695358914
 10
494.8954080939
 20
-288.8712709508
 10
491.4090553724
 20
-291.4907080515
 10
487.9008432904
 20
-293.9213348603
 10
484.3794938158
 20
-296.1571084558
 10
480.8537615783
 20
-298.1924703526
 10
477.3324121037
 20
-300.0223603204
 10
473.8242000216
 20
-301.6422289644
 10
470.3378473001
 20
-303.0480490359
 10
466.8820215614
 20
-304.2363254447
 10
463.4653145327
 20
-305.2041039484
 10
460.096220686
 20
-305.9489784972
 10
456.7831161195
 20
-306.4690972156
 10
453.5342377332
 20
-306.7631670065
 10
450.3576627506
 20
-306.830456766
 10
447.2612886377
 20
-306.6707992013
 10
444.2528134683
 20
-306.2845912462
 10
441.3397167858
 20
-305.6727930744
 10
438.5292410075
 20
-304.8369257128
 10
435.828373419
 20
-303.7790672592
 10
433.2438288028
 20
-302.5018477163
 10
432.6206910652
 20
-302.1509740118
  0
ARC
  5
EF
330
1F
100
AcDbEntity
  8
0
  6
Continuous
 62
     7
370
    25
100
AcDbCircle
 10
496.9718006704
 20
-223.8331527361
 30
0.0
 40
120.7643457408244
100
AcDbArc
 50
132.4666610707
 51
167.538715462
  0
LWPOLYLINE
  5
F0
330
1F
100
AcDbEntity
  8
0
  6
Continuous
 62
     7
370
    25
100
AcDbPolyline
 90
       89
 70
   128
 43
0.0
 10
514.1840920853
 20
-118.302670957
 10
517.3618298001
 20
-117.727375418
 10
520.8321774896
 20
-117.3019518491
 10
524.2346606847
 20
-117.1018085474
 10
527.5617999889
 20
-117.1273854712
 10
530.8062816279
 20
-117.3786263969
 10
533.9609735268
 20
-117.8549790424
 10
537.0189409884
 20
-118.5553962812
 10
539.9734619364
 20
-119.4783384442
 10
542.8180416925
 20
-120.6217767043
 10
545.5464272532
 20
-121.983197536
 10
548.1526210347
 20
-123.5596082409
 10
550.6308940576
 20
-125.347543526
 10
552.9757985399
 20
-127.3430731216
 10
555.1821798727
 20
-129.5418104205
 10
557.2451879508
 20
-131.938922121
 10
559.1602878349
 20
-134.5291388514
 10
560.9232697197
 20
-137.306766753
 10
562.5302581884
 20
-140.265699997
 10
563.9777207317
 20
-143.3994342059
 10
565.2624755127
 20
-146.7010807517
 10
566.3816983616
 20
-150.163381899
 10
567.3329289837
 20
-153.7787267582
 10
568.1140763675
 20
-157.5391680168
 10
568.7234233817
 20
-161.4364394087
 10
569.1596305492
 20
-165.4619738857
 10
569.4217389921
 20
-169.6069224492
 10
569.509172539
 20
-173.8621736028
 10
569.4217389921
 20
-178.2183733809
 10
569.1596305492
 20
-182.665945911
 10
568.7234233817
 20
-187.1951144635
 10
568.1140763675
 20
-191.7959229428
 10
567.3329289837
 20
-196.4582577734
 10
566.3816983616
 20
-201.1718701316
 10
565.2624755127
 20
-205.9263984743
 10
563.9777207317
 20
-210.7113913164
 10
562.5302581884
 20
-215.5163302052
 10
560.9232697197
 20
-220.3306528421
 10
559.1602878349
 20
-225.1437763012
 10
557.2451879508
 20
-229.9451202925
 10
555.1821798727
 20
-234.7241304199
 10
552.9757985399
 20
-239.470301382
 10
550.6308940576
 20
-244.1732000649
 10
548.1526210347
 20
-248.8224884766
 10
545.5464272532
 20
-253.4079464722
 10
542.8180416925
 20
-257.9194942199
 10
539.9734619364
 20
-262.3472143585
 10
537.0189409884
 20
-266.6813737983
 10
533.9609735268
 20
-270.9124451162
 10
530.8062816279
 20
-275.0311274991
 10
527.5617999889
 20
-279.0283671893
 10
524.2346606847
 20
-282.8953773865
 10
520.8321774896
 20
-286.6236575629
 10
517.3618298001
 20
-290.2050121497
 10
513.8312461936
 20
-293.6315685521
 10
510.248187659
 20
-296.8957944556
 10
506.6205305367
 20
-299.9905143831
 10
502.9562492044
 20
-302.9089254687
 10
499.2633985475
 20
-305.6446124114
 10
495.5500962534
 20
-308.1915615775
 10
491.8245049664
 20
-310.54417422
 10
488.0948143446
 20
-312.6972787859
 10
484.3692230576
 20
-314.6461422838
 10
480.6559207635
 20
-316.386480689
 10
476.9630701067
 20
-317.9144683599
 10
473.2987887743
 20
-319.2267464479
 10
469.671131652
 20
-320.3204302811
 10
466.0880731174
 20
-321.193115705
 10
462.5574895109
 20
-321.8428843676
 10
459.0871418214
 20
-322.2683079365
 10
455.6846586263
 20
-322.4684512383
 10
452.3575193221
 20
-322.4428743145
 10
449.1130376832
 20
-322.1916333888
 10
445.9583457842
 20
-321.7152807433
 10
442.9003783226
 20
-321.0148635045
 10
439.9458573746
 20
-320.0919213414
 10
437.1012776185
 20
-318.9484830813
 10
434.3728920578
 20
-317.5870622496
 10
431.7666982763
 20
-316.0106515448
 10
429.2884252534
 20
-314.2227162597
 10
426.9435207711
 20
-312.2271866641
 10
424.7371394383
 20
-310.0284493652
 10
422.6741313602
 20
-307.6313376646
 10
420.7590314761
 20
-305.0411209343
 10
418.9960495913
 20
-302.2634930327
 10
417.3890611226
 20
-299.3045597887
 10
415.9415985793
 20
-296.1708255798
 10
414.6568437983
 20
-292.8691790339
 10
414.1922188217
 20
-291.5124434331
  0
ARC
  5
F1
330
1F
100
AcDbEntity
  8
0
  6
Continuous
 62
     7
370
    25
100
AcDbCircle
 10
525.7666409202
 20
-240.4560601838
 30
0.0
 40
122.4932509779118
100
AcDbArc
 50
135.1872997076
 51
164.8180768251
  0
LWPOLYLINE
  5
F2
330
1F
100
AcDbEntity
  8
0
  6
Continuous
 62
     7
370
    25
100
AcDbPolyline
 90
       69
 70
   128
 43
0.0
 10
571.660932489
 20
-137.0499788878
 10
573.6084651575
 20
-138.2549542537
 10
576.0867381804
 20
-140.0428895388
 10
578.4316426627
 20
-142.0384191344
 10
580.6380239954
 20
-144.2371564333
 10
582.7010320735
 20
-146.6342681338
 10
584.6161319576
 20
-149.2244848642
 10
586.3791138424
 20
-152.0021127658
 10
587.9861023112
 20
-154.9610460098
 10
589.4335648544
 20
-158.0947802187
 10
590.7183196354
 20
-161.3964267645
 10
591.8375424843
 20
-164.8587279118
 10
592.7887731064
 20
-168.474072771
 10
593.5699204902
 20
-172.2345140296
 10
594.1792675044
 20
-176.1317854215
 10
594.6154746719
 20
-180.1573198985
 10
594.8775831148
 20
-184.302268462
 10
594.9650166617
 20
-188.5575196156
 10
594.8775831148
 20
-192.9137193937
 10
594.6154746719
 20
-197.3612919238
 10
594.1792675044
 20
-201.8904604763
 10
593.5699204902
 20
-206.4912689556
 10
592.7887731064
 20
-211.1536037862
 10
591.8375424843
 20
-215.8672161444
 10
590.7183196354
 20
-220.6217444871
 10
589.4335648544
 20
-225.4067373292
 10
587.9861023112
 20
-230.211676218
 10
586.3791138424
 20
-235.0259988549
 10
584.6161319576
 20
-239.839122314
 10
582.7010320735
 20
-244.6404663053
 10
580.6380239954
 20
-249.4194764327
 10
578.4316426627
 20
-254.1656473948
 10
576.0867381804
 20
-258.8685460777
 10
573.6084651575
 20
-263.5178344894
 10
571.0022713759
 20
-268.103292485
 10
568.2738858153
 20
-272.6148402327
 10
565.4293060591
 20
-277.0425603714
 10
562.4747851111
 20
-281.3767198111
 10
559.4168176496
 20
-285.607791129
 10
556.2621257506
 20
-289.7264735119
 10
553.0176441116
 20
-293.7237132021
 10
549.6905048074
 20
-297.5907233993
 10
546.2880216123
 20
-301.3190035758
 10
542.8176739228
 20
-304.9003581625
 10
539.2870903163
 20
-308.3269145649
 10
535.7040317818
 20
-311.5911404684
 10
532.0763746595
 20
-314.6858603959
 10
528.4120933271
 20
-317.6042714815
 10
524.7192426702
 20
-320.3399584242
 10
521.0059403761
 20
-322.8869075903
 10
517.2803490891
 20
-325.2395202328
 10
513.5506584673
 20
-327.3926247987
 10
509.8250671803
 20
-329.3414882966
 10
506.1117648862
 20
-331.0818267018
 10
502.4189142294
 20
-332.6098143727
 10
498.754632897
 20
-333.9220924607
 10
495.1269757747
 20
-335.0157762939
 10
491.5439172401
 20
-335.8884617178
 10
488.0133336336
 20
-336.5382303805
 10
484.5429859441
 20
-336.9636539493
 10
481.140502749
 20
-337.1637972511
 10
477.8133634448
 20
-337.1382203273
 10
474.5688818059
 20
-336.8869794016
 10
471.4141899069
 20
-336.4106267561
 10
468.3562224453
 20
-335.7102095173
 10
465.4017014973
 20
-334.7872673542
 10
462.5571217412
 20
-333.6438290941
 10
459.8287361805
 20
-332.2824082624
 10
459.1700750674
 20
-331.9109729235
  0
ARC
  5
F3
330
1F
100
AcDbEntity
  8
0
  6
Continuous
 62
     7
370
    25
100
AcDbCircle
 10
539.4560216093
 20
-248.3587714417
 30
0.0
 40
137.460396657425
100
AcDbArc
 50
137.1341977362
 51
162.8711787965
  0
LINE
  5
F4
330
1F
100
AcDbEntity
  8
0
  6
Continuous
 62
     7
370
    25
100
AcDbLine
 10
23.8914362981
 20
-139.4381000352
 30
0.0
 11
23.8914362981
 21
-175.4381000352
 31
0.0
  0
LINE
  5
F5
330
1F
100
AcDbEntity
  8
0
  6
Continuous
 62
     7
370
    25
100
AcDbLine
 10
248.8914362981
 20
-175.4381000352
 30
0.0
 11
248.8914362981
 21
-139.4381000352
 31
0.0
  0
LINE
  5
F6
330
1F
100
AcDbEntity
  8
0
  6
Continuous
 62
     7
370
    25
100
AcDbLine
 10
23.8914362981
 20
-175.4381000352
 30
0.0
 11
36.3914362981
 21
-185.8227154198
 31
0.0
  0
LINE
  5
F7
330
1F
100
AcDbEntity
  8
0
  6
Continuous
 62
     7
370
    25
100
AcDbLine
 10
236.3914362981
 20
-185.8227154198
 30
0.0
 11
248.8914362981
 21
-175.4381000352
 31
0.0
  0
LINE
  5
F8
330
1F
100
AcDbEntity
  8
0
  6
Continuous
 62
     7
370
    25
100
AcDbLine
 10
36.3914362981
 20
-185.8227154198
 30
0.0
 11
36.3914362981
 21
-221.8227154198
 31
0.0
  0
LINE
  5
F9
330
1F
100
AcDbEntity
  8
0
  6
Continuous
 62
     7
370
    25
100
AcDbLine
 10
236.3914362981
 20
-221.8227154198
 30
0.0
 11
236.3914362981
 21
-185.8227154198
 31
0.0
  0
LINE
  5
FA
330
1F
100
AcDbEntity
  8
0
  6
Continuous
 62
     7
370
    25
100
AcDbLine
 10
36.3914362981
 20
-221.8227154198
 30
0.0
 11
46.3914362981
 21
-230.1304077275
 31
0.0
  0
LINE
  5
FB
330
1F
100
AcDbEntity
  8
0
  6
Continuous
 62
     7
370
    25
100
AcDbLine
 10
226.3914362981
 20
-230.1304077275
 30
0.0
 11
236.3914362981
 21
-221.8227154198
 31
0.0
  0
LINE
  5
FC
330
1F
100
AcDbEntity
  8
0
  6
Continuous
 62
     7
370
    25
100
AcDbLine
 10
46.3914362981
 20
-230.1304077275
 30
0.0
 11
46.3914362981
 21
-266.1304077275
 31
0.0
  0
LINE
  5
FD
330
1F
100
AcDbEntity
  8
0
  6
Continuous
 62
     7
370
    25
100
AcDbLine
 10
226.3914362981
 20
-266.1304077275
 30
0.0
 11
226.3914362981
 21
-230.1304077275
 31
0.0
  0
LINE
  5
FE
330
1F
100
AcDbEntity
  8
0
  6
Continuous
 62
     7
370
    25
100
AcDbLine
 10
46.3914362981
 20
-266.1304077275
 30
0.0
 11
56.3914362981
 21
-274.4381000352
 31
0.0
  0
LINE
  5
FF
330
1F
100
AcDbEntity
  8
0
  6
Continuous
 62
     7
370
    25
100
AcDbLine
 10
216.3914362981
 20
-274.4381000352
 30
0.0
 11
226.3914362981
 21
-266.1304077275
 31
0.0
  0
LINE
  5
100
330
1F
100
AcDbEntity
  8
0
  6
Continuous
 62
     7
370
    25
100
AcDbLine
 10
56.3914362981
 20
-274.4381000352
 30
0.0
 11
56.3914362981
 21
-310.4381000352
 31
0.0
  0
LINE
  5
101
330
1F
100
AcDbEntity
  8
0
  6
Continuous
 62
     7
370
    25
100
AcDbLine
 10
216.3914362981
 20
-310.4381000352
 30
0.0
 11
216.3914362981
 21
-274.4381000352
 31
0.0
  0
LINE
  5
102
330
1F
100
AcDbEntity
  8
0
  6
Continuous
 62
     7
370
    25
100
AcDbLine
 10
23.8914362981
 20
-175.4381000352
 30
0.0
 11
248.8914362981
 21
-175.4381000352
 31
0.0
  0
LINE
  5
103
330
1F
100
AcDbEntity
  8
0
  6
Continuous
 62
     7
370
    25
100
AcDbLine
 10
23.8914362981
 20
-139.4381000352
 30
0.0
 11
248.8914362981
 21
-139.4381000352
 31
0.0
  0
LINE
  5
104
330
1F
100
AcDbEntity
  8
0
  6
Continuous
 62
     7
370
    25
100
AcDbLine
 10
36.3914362981
 20
-185.8227154198
 30
0.0
 11
236.3914362981
 21
-185.8227154198
 31
0.0
  0
LINE
  5
105
330
1F
100
AcDbEntity
  8
0
  6
Continuous
 62
     7
370
    25
100
AcDbLine
 10
36.3914362981
 20
-221.8227154198
 30
0.0
 11
236.3914362981
 21
-221.8227154198
 31
0.0
  0
LINE
  5
106
330
1F
100
AcDbEntity
  8
0
  6
Continuous
 62
     7
370
    25
100
AcDbLine
 10
46.3914362981
 20
-230.1304077275
 30
0.0
 11
226.3914362981
 21
-230.1304077275
 31
0.0
  0
LINE
  5
107
330
1F
100
AcDbEntity
  8
0
  6
Continuous
 62
     7
370
    25
100
AcDbLine
 10
46.3914362981
 20
-266.1304077275
 30
0.0
 11
226.3914362981
 21
-266.1304077275
 31
0.0
  0
LINE
  5
108
330
1F
100
AcDbEntity
  8
0
  6
Continuous
 62
     7
370
    25
100
AcDbLine
 10
56.3914362981
 20
-274.4381000352
 30
0.0
 11
216.3914362981
 21
-274.4381000352
 31
0.0
  0
LINE
  5
109
330
1F
100
AcDbEntity
  8
0
  6
Continuous
 62
     7
370
    25
100
AcDbLine
 10
56.3914362981
 20
-310.4381000352
 30
0.0
 11
216.3914362981
 21
-310.4381000352
 31
0.0
  0
ENDSEC
  0
SECTION
  2
OBJECTS
  0
DICTIONARY
  5
C
330
0
100
AcDbDictionary
281
     1
  3
ACAD_GROUP
350
D
  3
ACAD_LAYOUT
350
1A
  3
ACAD_MLINESTYLE
350
17
  3
ACAD_PLOTSETTINGS
350
19
  3
ACAD_PLOTSTYLENAME
350
E
  3
ACAD_SCALELIST
350
47
  0
DICTIONARY
  5
D
102
{ACAD_REACTORS
330
C
102
}
330
C
100
AcDbDictionary
281
     1
  0
DICTIONARY
  5
1A
102
{ACAD_REACTORS
330
C
102
}
330
C
100
AcDbDictionary
281
     1
  3
Layout1
350
1E
  3
Layout2
350
26
  3
Model
350
22
  0
DICTIONARY
  5
17
102
{ACAD_REACTORS
330
C
102
}
330
C
100
AcDbDictionary
281
     1
  3
Standard
350
18
  0
DICTIONARY
  5
19
102
{ACAD_REACTORS
330
C
102
}
330
C
100
AcDbDictionary
281
     1
  0
ACDBDICTIONARYWDFLT
  5
E
102
{ACAD_REACTORS
330
C
102
}
330
C
100
AcDbDictionary
281
     1
  3
Normal
350
F
100
AcDbDictionaryWithDefault
340
F
  0
DICTIONARY
  5
47
102
{ACAD_REACTORS
330
C
102
}
330
C
100
AcDbDictionary
281
     1
  3
A0
350
48
  3
A1
350
49
  3
A2
350
4A
  3
A3
350
4B
  3
A4
350
4C
  3
A5
350
4D
  3
A6
350
4E
  3
A7
350
4F
  3
A8
350
50
  3
A9
350
51
  3
B0
350
52
  3
B1
350
53
  3
B2
350
54
  3
B3
350
55
  3
B4
350
56
  3
B5
350
57
  3
B6
350
58
  3
B7
350
59
  3
B8
350
5A
  3
B9
350
5B
  3
C0
350
5C
  3
C1
350
5D
  3
C2
350
5E
  3
C3
350
5F
  3
C4
350
60
  3
C5
350
61
  3
C6
350
62
  3
C7
350
63
  3
C8
350
64
  3
C9
350
65
  3
D0
350
66
  3
D1
350
67
  3
D2
350
68
  0
LAYOUT
  5
1E
102
{ACAD_REACTORS
330
1A
102
}
330
1A
100
AcDbPlotSettings
  1

  2
none_device
  4

  6

 40
0.0
 41
0.0
 42
0.0
 43
0.0
 44
0.0
 45
0.0
 46
0.0
 47
0.0
 48
0.0
 49
0.0
140
0.0
141
0.0
142
1.0
143
1.0
 70
   688
 72
     1
 73
     0
 74
     5
  7

 75
    16
147
1.0
148
0.0
149
0.0
100
AcDbLayout
  1
Layout1
 70
     1
 71
     1
 10
0.0
 20
0.0
 11
420.0
 21
297.0
 12
0.0
 22
0.0
 32
0.0
 14
1.0000000000E+20
 24
1.0000000000E+20
 34
1.0000000000E+20
 15
-1.0000000000E+20
 25
-1.0000000000E+20
 35
-1.0000000000E+20
146
0.0
 13
0.0
 23
0.0
 33
0.0
 16
1.0
 26
0.0
 36
0.0
 17
0.0
 27
1.0
 37
0.0
 76
     0
330
1B
  0
LAYOUT
  5
26
102
{ACAD_REACTORS
330
1A
102
}
330
1A
100
AcDbPlotSettings
  1

  2
none_device
  4

  6

 40
0.0
 41
0.0
 42
0.0
 43
0.0
 44
0.0
 45
0.0
 46
0.0
 47
0.0
 48
0.0
 49
0.0
140
0.0
141
0.0
142
1.0
143
1.0
 70
   688
 72
     1
 73
     0
 74
     5
  7

 75
    16
147
1.0
148
0.0
149
0.0
100
AcDbLayout
  1
Layout2
 70
     1
 71
     2
 10
0.0
 20
0.0
 11
0.0
 21
0.0
 12
0.0
 22
0.0
 32
0.0
 14
0.0
 24
0.0
 34
0.0
 15
0.0
 25
0.0
 35
0.0
146
0.0
 13
0.0
 23
0.0
 33
0.0
 16
1.0
 26
0.0
 36
0.0
 17
0.0
 27
1.0
 37
0.0
 76
     0
330
23
  0
LAYOUT
  5
22
102
{ACAD_REACTORS
330
1A
102
}
330
1A
100
AcDbPlotSettings
  1

  2
none_device
  4
Letter_(8.50_x_11.00_Inches)
  6

 40
6.35
 41
6.35
 42
6.35000508
 43
6.35000508
 44
215.9
 45
279.4
 46
0.0
 47
0.0
 48
0.0
 49
0.0
140
0.0
141
0.0
142
1.0
143
1.0
 70
  1712
 72
     1
 73
     0
 74
     0
  7

 75
     0
147
1.0
148
0.0
149
0.0
100
AcDbLayout
  1
Model
 70
     1
 71
     0
 10
0.0
 20
0.0
 11
279.4
 21
215.9
 12
0.0
 22
0.0
 32
0.0
 14
0.0
 24
0.0
 34
0.0
 15
279.4
 25
215.9
 35
0.0
146
0.0
 13
0.0
 23
0.0
 33
0.0
 16
1.0
 26
0.0
 36
0.0
 17
0.0
 27
1.0
 37
0.0
 76
     0
330
1F
331
29
  0
MLINESTYLE
  5
18
102
{ACAD_REACTORS
330
17
102
}
330
17
100
AcDbMlineStyle
  2
Standard
 70
     0
  3

 62
   256
 51
90.0
 52
90.0
 71
     2
 49
0.5
 62
   256
  6
BYLAYER
 49
-0.5
 62
   256
  6
BYLAYER
  0
ACDBPLACEHOLDER
  5
F
102
{ACAD_REACTORS
330
E
102
}
330
E
  0
SCALE
  5
48
102
{ACAD_REACTORS
330
47
102
}
330
47
100
AcDbScale
 70
     0
300
1:1
140
1.0
141
1.0
290
     1
  0
SCALE
  5
49
102
{ACAD_REACTORS
330
47
102
}
330
47
100
AcDbScale
 70
     0
300
1:2
140
1.0
141
2.0
290
     0
  0
SCALE
  5
4A
102
{ACAD_REACTORS
330
47
102
}
330
47
100
AcDbScale
 70
     0
300
1:4
140
1.0
141
4.0
290
     0
  0
SCALE
  5
4B
102
{ACAD_REACTORS
330
47
102
}
330
47
100
AcDbScale
 70
     0
300
1:5
140
1.0
141
5.0
290
     0
  0
SCALE
  5
4C
102
{ACAD_REACTORS
330
47
102
}
330
47
100
AcDbScale
 70
     0
300
1:8
140
1.0
141
8.0
290
     0
  0
SCALE
  5
4D
102
{ACAD_REACTORS
330
47
102
}
330
47
100
AcDbScale
 70
     0
300
1:10
140
1.0
141
10.0
290
     0
  0
SCALE
  5
4E
102
{ACAD_REACTORS
330
47
102
}
330
47
100
AcDbScale
 70
     0
300
1:16
140
1.0
141
16.0
290
     0
  0
SCALE
  5
4F
102
{ACAD_REACTORS
330
47
102
}
330
47
100
AcDbScale
 70
     0
300
1:20
140
1.0
141
20.0
290
     0
  0
SCALE
  5
50
102
{ACAD_REACTORS
330
47
102
}
330
47
100
AcDbScale
 70
     0
300
1:30
140
1.0
141
30.0
290
     0
  0
SCALE
  5
51
102
{ACAD_REACTORS
330
47
102
}
330
47
100
AcDbScale
 70
     0
300
1:40
140
1.0
141
40.0
290
     0
  0
SCALE
  5
52
102
{ACAD_REACTORS
330
47
102
}
330
47
100
AcDbScale
 70
     0
300
1:50
140
1.0
141
50.0
290
     0
  0
SCALE
  5
53
102
{ACAD_REACTORS
330
47
102
}
330
47
100
AcDbScale
 70
     0
300
1:100
140
1.0
141
100.0
290
     0
  0
SCALE
  5
54
102
{ACAD_REACTORS
330
47
102
}
330
47
100
AcDbScale
 70
     0
300
2:1
140
2.0
141
1.0
290
     0
  0
SCALE
  5
55
102
{ACAD_REACTORS
330
47
102
}
330
47
100
AcDbScale
 70
     0
300
4:1
140
4.0
141
1.0
290
     0
  0
SCALE
  5
56
102
{ACAD_REACTORS
330
47
102
}
330
47
100
AcDbScale
 70
     0
300
8:1
140
8.0
141
1.0
290
     0
  0
SCALE
  5
57
102
{ACAD_REACTORS
330
47
102
}
330
47
100
AcDbScale
 70
     0
300
10:1
140
10.0
141
1.0
290
     0
  0
SCALE
  5
58
102
{ACAD_REACTORS
330
47
102
}
330
47
100
AcDbScale
 70
     0
300
100:1
140
100.0
141
1.0
290
     0
  0
SCALE
  5
59
102
{ACAD_REACTORS
330
47
102
}
330
47
100
AcDbScale
 70
     0
300
1/128" = 1'-0"
140
0.0078125
141
12.0
290
     0
  0
SCALE
  5
5A
102
{ACAD_REACTORS
330
47
102
}
330
47
100
AcDbScale
 70
     0
300
1/64" = 1'-0"
140
0.015625
141
12.0
290
     0
  0
SCALE
  5
5B
102
{ACAD_REACTORS
330
47
102
}
330
47
100
AcDbScale
 70
     0
300
1/32" = 1'-0"
140
0.03125
141
12.0
290
     0
  0
SCALE
  5
5C
102
{ACAD_REACTORS
330
47
102
}
330
47
100
AcDbScale
 70
     0
300
1/16" = 1'-0"
140
0.0625
141
12.0
290
     0
  0
SCALE
  5
5D
102
{ACAD_REACTORS
330
47
102
}
330
47
100
AcDbScale
 70
     0
300
3/32" = 1'-0"
140
0.09375
141
12.0
290
     0
  0
SCALE
  5
5E
102
{ACAD_REACTORS
330
47
102
}
330
47
100
AcDbScale
 70
     0
300
1/8" = 1'-0"
140
0.125
141
12.0
290
     0
  0
SCALE
  5
5F
102
{ACAD_REACTORS
330
47
102
}
330
47
100
AcDbScale
 70
     0
300
3/16" = 1'-0"
140
0.1875
141
12.0
290
     0
  0
SCALE
  5
60
102
{ACAD_REACTORS
330
47
102
}
330
47
100
AcDbScale
 70
     0
300
1/4" = 1'-0"
140
0.25
141
12.0
290
     0
  0
SCALE
  5
61
102
{ACAD_REACTORS
330
47
102
}
330
47
100
AcDbScale
 70
     0
300
3/8" = 1'-0"
140
0.375
141
12.0
290
     0
  0
SCALE
  5
62
102
{ACAD_REACTORS
330
47
102
}
330
47
100
AcDbScale
 70
     0
300
1/2" = 1'-0"
140
0.5
141
12.0
290
     0
  0
SCALE
  5
63
102
{ACAD_REACTORS
330
47
102
}
330
47
100
AcDbScale
 70
     0
300
3/4" = 1'-0"
140
0.75
141
12.0
290
     0
  0
SCALE
  5
64
102
{ACAD_REACTORS
330
47
102
}
330
47
100
AcDbScale
 70
     0
300
1" = 1'-0"
140
1.0
141
12.0
290
     0
  0
SCALE
  5
65
102
{ACAD_REACTORS
330
47
102
}
330
47
100
AcDbScale
 70
     0
300
1-1/2" = 1'-0"
140
1.5
141
12.0
290
     0
  0
SCALE
  5
66
102
{ACAD_REACTORS
330
47
102
}
330
47
100
AcDbScale
 70
     0
300
3" = 1'-0"
140
3.0
141
12.0
290
     0
  0
SCALE
  5
67
102
{ACAD_REACTORS
330
47
102
}
330
47
100
AcDbScale
 70
     0
300
6" = 1'-0"
140
6.0
141
12.0
290
     0
  0
SCALE
  5
68
102
{ACAD_REACTORS
330
47
102
}
330
47
100
AcDbScale
 70
     0
300
1'-0" = 1'-0"
140
12.0
141
12.0
290
     0
  0
ENDSEC
  0
EOF
